  0
SECTION
  2
HEADER
  9
$ACADVER
  1
AC1006
  9
$AXISMODE
 70
     0
  9
$AXISUNIT
 10
0.0625
 20
0.0625
  9
$CECOLOR
 62
0
  9
$CELTYPE
  6
CONTINUOUS
  9
$CLAYER
  8
LAYER1
  9
$EXTMIN
 10
0
 20
0
  9
$EXTMAX
 10
14.3542
 20
10.8728
  9
$LIMMIN
 10
0
 20
0
  9
$LIMMAX
 10
14.3542
 20
10.8728
  9
$GRIDMODE
 70
     0
  9
$GRIDUNIT
 10
0.125
 20
0.125
  9
$MIRRTEXT
 70
     1
  9
$SNAPMODE
 70
     1
  9
$SNAPUNIT
 10
0.125
 20
0
  9
$SNAPSTYLE
 70
     0
  9
$SPLINESEGS
 70
     8
  9
$SPLINETYPE
 70
     6
  0
ENDSEC
  0
SECTION
  2
TABLES
  0TABLE  2VPORT 70     2  0VPORT  2*ACTIVE 70     0 100.0 200.0 111.0 211.0 1213.01087 224.5 130.0 230.0 141.0 241.0 150.0 250.0 160.0 260.0 361.0 170.0 270.0 370.0 409.0 412.891304 4250.0 430.0 440.0 500.0 510.0 71     0 72   100 73     1 74     1 75     0 76     0 77     0 78     0  0ENDTAB
  0
TABLE
  2
LTYPE
 70
     1
  0
LTYPE
  2
CONTINUOUS
 70
    64
  3
Descriptive Text
 72
    65
 73
     0
 40
0
  0
ENDTAB
  0
TABLE
  2
LAYER
 70
     1
  0
LAYER
  2
LAYER1
 70
     0
 62
     7
  6
CONTINUOUS
  0
ENDTAB
  0TABLE  2STYLE 70     1  0STYLE  2STANDARD 70     0 400.0 411.0 500.0 71     0 420.2  3txt  4  0ENDTAB
  0
TABLE
  2
VIEW
 70
     0
  0
ENDTAB
  0
TABLE
  2
UCS
 70
     0
  0
ENDTAB
  0
TABLE
  2
DWGMGR
 70
     0
  0
ENDTAB
  0
ENDSEC
  0
SECTION
  2
BLOCKS
  0
BLOCK
  8
LAYER1
  2
Group1
 70
     0
 10
0
 20
0
 30
0
  0
LINE
  8
LAYER1
  6
CONTINUOUS
 62
     7
 10
0.2222
 20
10.5256
 30
0
 11
4.7222
 21
10.5256
 31
0
  0
LINE
  8
LAYER1
  6
CONTINUOUS
 62
     7
 10
0.9583
 20
9.6784
 30
0
 11
1.6111
 21
9.6784
 31
0
  0
LINE
  8
LAYER1
  6
CONTINUOUS
 62
     7
 10
0.9583
 20
7.6367
 30
0
 11
1.6111
 21
7.6367
 31
0
  0
POLYLINE
  8
LAYER1
  6
CONTINUOUS
 62
     7
 66
     1
 70
     0
 40
0.001
 41
0.001
  0
VERTEX
  8
LAYER1
 10
0.9861
 20
9.6228
 30
0
 70
     0
  0
VERTEX
  8
LAYER1
 10
0.9861
 20
9.6228
 30
0
 70
     0
  0
VERTEX
  8
LAYER1
 10
0.9722
 20
9.6228
 30
0
 70
     0
  0
VERTEX
  8
LAYER1
 10
0.9583
 20
9.6367
 30
0
 70
     0
  0
VERTEX
  8
LAYER1
 10
0.9583
 20
9.6367
 30
0
 70
     0
  0
VERTEX
  8
LAYER1
 10
0.9583
 20
9.6506
 30
0
 70
     0
  0
VERTEX
  8
LAYER1
 10
0.9583
 20
9.6645
 30
0
 70
     0
  0
SEQEND
  0
LINE
  8
LAYER1
  6
CONTINUOUS
 62
     7
 10
0.9583
 20
9.6784
 30
0
 11
0.9583
 21
9.6645
 31
0
  0
POLYLINE
  8
LAYER1
  6
CONTINUOUS
 62
     7
 66
     1
 70
     0
 40
0.001
 41
0.001
  0
VERTEX
  8
LAYER1
 10
1.6111
 20
9.6645
 30
0
 70
     0
  0
VERTEX
  8
LAYER1
 10
1.6111
 20
9.6506
 30
0
 70
     0
  0
VERTEX
  8
LAYER1
 10
1.6111
 20
9.6506
 30
0
 70
     0
  0
VERTEX
  8
LAYER1
 10
1.5972
 20
9.6367
 30
0
 70
     0
  0
VERTEX
  8
LAYER1
 10
1.5972
 20
9.6228
 30
0
 70
     0
  0
VERTEX
  8
LAYER1
 10
1.5972
 20
9.6228
 30
0
 70
     0
  0
VERTEX
  8
LAYER1
 10
1.5833
 20
9.6228
 30
0
 70
     0
  0
SEQEND
  0
LINE
  8
LAYER1
  6
CONTINUOUS
 62
     7
 10
1.6111
 20
9.6645
 30
0
 11
1.6111
 21
9.6784
 31
0
  0
POLYLINE
  8
LAYER1
  6
CONTINUOUS
 62
     7
 66
     1
 70
     0
 40
0.001
 41
0.001
  0
VERTEX
  8
LAYER1
 10
0.9583
 20
7.6645
 30
0
 70
     0
  0
VERTEX
  8
LAYER1
 10
0.9583
 20
7.6784
 30
0
 70
     0
  0
VERTEX
  8
LAYER1
 10
0.9583
 20
7.6784
 30
0
 70
     0
  0
VERTEX
  8
LAYER1
 10
0.9861
 20
7.6923
 30
0
 70
     0
  0
VERTEX
  8
LAYER1
 10
0.9861
 20
7.6923
 30
0
 70
     0
  0
SEQEND
  0
LINE
  8
LAYER1
  6
CONTINUOUS
 62
     7
 10
0.9583
 20
7.6645
 30
0
 11
0.9583
 21
7.6367
 31
0
  0
POLYLINE
  8
LAYER1
  6
CONTINUOUS
 62
     7
 66
     1
 70
     0
 40
0.001
 41
0.001
  0
VERTEX
  8
LAYER1
 10
1.5833
 20
7.6923
 30
0
 70
     0
  0
VERTEX
  8
LAYER1
 10
1.5972
 20
7.6923
 30
0
 70
     0
  0
VERTEX
  8
LAYER1
 10
1.5972
 20
7.6784
 30
0
 70
     0
  0
VERTEX
  8
LAYER1
 10
1.5972
 20
7.6784
 30
0
 70
     0
  0
VERTEX
  8
LAYER1
 10
1.6111
 20
7.6784
 30
0
 70
     0
  0
VERTEX
  8
LAYER1
 10
1.6111
 20
7.6645
 30
0
 70
     0
  0
VERTEX
  8
LAYER1
 10
1.6111
 20
7.6645
 30
0
 70
     0
  0
SEQEND
  0
LINE
  8
LAYER1
  6
CONTINUOUS
 62
     7
 10
1.6111
 20
7.6367
 30
0
 11
1.6111
 21
7.6645
 31
0
  0
POLYLINE
  8
LAYER1
  6
CONTINUOUS
 62
     7
 66
     1
 70
     0
 40
0.001
 41
0.001
  0
VERTEX
  8
LAYER1
 10
1.2639
 20
7.7895
 30
0
 70
     0
  0
VERTEX
  8
LAYER1
 10
1.2639
 20
7.7617
 30
0
 70
     0
  0
VERTEX
  8
LAYER1
 10
1.25
 20
7.7339
 30
0
 70
     0
  0
VERTEX
  8
LAYER1
 10
1.2361
 20
7.7339
 30
0
 70
     0
  0
VERTEX
  8
LAYER1
 10
1.2361
 20
7.7201
 30
0
 70
     0
  0
VERTEX
  8
LAYER1
 10
1.2083
 20
7.7062
 30
0
 70
     0
  0
VERTEX
  8
LAYER1
 10
1.1944
 20
7.7062
 30
0
 70
     0
  0
SEQEND
  0
LINE
  8
LAYER1
  6
CONTINUOUS
 62
     7
 10
1.1944
 20
7.7062
 30
0
 11
0.9861
 21
7.6923
 31
0
  0
POLYLINE
  8
LAYER1
  6
CONTINUOUS
 62
     7
 66
     1
 70
     0
 40
0.001
 41
0.001
  0
VERTEX
  8
LAYER1
 10
1.375
 20
7.7062
 30
0
 70
     0
  0
VERTEX
  8
LAYER1
 10
1.3611
 20
7.7062
 30
0
 70
     0
  0
VERTEX
  8
LAYER1
 10
1.3472
 20
7.7201
 30
0
 70
     0
  0
VERTEX
  8
LAYER1
 10
1.3333
 20
7.7339
 30
0
 70
     0
  0
VERTEX
  8
LAYER1
 10
1.3194
 20
7.7339
 30
0
 70
     0
  0
VERTEX
  8
LAYER1
 10
1.3056
 20
7.7617
 30
0
 70
     0
  0
VERTEX
  8
LAYER1
 10
1.3056
 20
7.7895
 30
0
 70
     0
  0
SEQEND
  0
LINE
  8
LAYER1
  6
CONTINUOUS
 62
     7
 10
1.375
 20
7.7062
 30
0
 11
1.5833
 21
7.6923
 31
0
  0
POLYLINE
  8
LAYER1
  6
CONTINUOUS
 62
     7
 66
     1
 70
     0
 40
0.001
 41
0.001
  0
VERTEX
  8
LAYER1
 10
1.3056
 20
9.5395
 30
0
 70
     0
  0
VERTEX
  8
LAYER1
 10
1.3056
 20
9.5534
 30
0
 70
     0
  0
VERTEX
  8
LAYER1
 10
1.3194
 20
9.5812
 30
0
 70
     0
  0
VERTEX
  8
LAYER1
 10
1.3333
 20
9.5951
 30
0
 70
     0
  0
VERTEX
  8
LAYER1
 10
1.3333
 20
9.5951
 30
0
 70
     0
  0
VERTEX
  8
LAYER1
 10
1.3611
 20
9.6089
 30
0
 70
     0
  0
VERTEX
  8
LAYER1
 10
1.375
 20
9.6089
 30
0
 70
     0
  0
SEQEND
  0
LINE
  8
LAYER1
  6
CONTINUOUS
 62
     7
 10
1.375
 20
9.6089
 30
0
 11
1.5833
 21
9.6228
 31
0
  0
LINE
  8
LAYER1
  6
CONTINUOUS
 62
     7
 10
1.3056
 20
9.5395
 30
0
 11
1.3056
 21
7.7895
 31
0
  0
POLYLINE
  8
LAYER1
  6
CONTINUOUS
 62
     7
 66
     1
 70
     0
 40
0.001
 41
0.001
  0
VERTEX
  8
LAYER1
 10
1.1944
 20
9.6089
 30
0
 70
     0
  0
VERTEX
  8
LAYER1
 10
1.2083
 20
9.6089
 30
0
 70
     0
  0
VERTEX
  8
LAYER1
 10
1.2361
 20
9.5951
 30
0
 70
     0
  0
VERTEX
  8
LAYER1
 10
1.2361
 20
9.5951
 30
0
 70
     0
  0
VERTEX
  8
LAYER1
 10
1.25
 20
9.5812
 30
0
 70
     0
  0
VERTEX
  8
LAYER1
 10
1.2639
 20
9.5534
 30
0
 70
     0
  0
VERTEX
  8
LAYER1
 10
1.2639
 20
9.5395
 30
0
 70
     0
  0
SEQEND
  0
LINE
  8
LAYER1
  6
CONTINUOUS
 62
     7
 10
1.1944
 20
9.6089
 30
0
 11
0.9861
 21
9.6228
 31
0
  0
ENDBLK
  8
LAYER1
  0
BLOCK
  8
LAYER1
  2
Group2
 70
     0
 10
0
 20
0
 30
0
  0
LINE
  8
LAYER1
  6
CONTINUOUS
 62
     7
 10
1.2639
 20
9.5395
 30
0
 11
1.2639
 21
7.7895
 31
0
  0
LINE
  8
LAYER1
  6
CONTINUOUS
 62
     7
 10
1.5139
 20
7.6367
 30
0
 11
1.5694
 21
7.6923
 31
0
  0
LINE
  8
LAYER1
  6
CONTINUOUS
 62
     7
 10
1.3889
 20
7.6367
 30
0
 11
1.4444
 21
7.7062
 31
0
  0
LINE
  8
LAYER1
  6
CONTINUOUS
 62
     7
 10
1.25
 20
7.6367
 30
0
 11
1.3333
 21
7.7201
 31
0
  0
LINE
  8
LAYER1
  6
CONTINUOUS
 62
     7
 10
1.125
 20
7.6367
 30
0
 11
1.1944
 21
7.7062
 31
0
  0
LINE
  8
LAYER1
  6
CONTINUOUS
 62
     7
 10
1.2639
 20
7.7756
 30
0
 11
1.3056
 21
7.8312
 31
0
  0
LINE
  8
LAYER1
  6
CONTINUOUS
 62
     7
 10
0.9861
 20
7.6367
 30
0
 11
1.0417
 21
7.6923
 31
0
  0
LINE
  8
LAYER1
  6
CONTINUOUS
 62
     7
 10
1.2639
 20
7.9145
 30
0
 11
1.3056
 21
7.9562
 31
0
  0
LINE
  8
LAYER1
  6
CONTINUOUS
 62
     7
 10
1.2639
 20
8.0395
 30
0
 11
1.3056
 21
8.0951
 31
0
  0
LINE
  8
LAYER1
  6
CONTINUOUS
 62
     7
 10
1.2639
 20
8.1784
 30
0
 11
1.3056
 21
8.2201
 31
0
  0
LINE
  8
LAYER1
  6
CONTINUOUS
 62
     7
 10
1.2639
 20
8.3034
 30
0
 11
1.3056
 21
8.3589
 31
0
  0
LINE
  8
LAYER1
  6
CONTINUOUS
 62
     7
 10
1.2639
 20
8.4423
 30
0
 11
1.3056
 21
8.4978
 31
0
  0
LINE
  8
LAYER1
  6
CONTINUOUS
 62
     7
 10
1.2639
 20
8.5673
 30
0
 11
1.3056
 21
8.6228
 31
0
  0
LINE
  8
LAYER1
  6
CONTINUOUS
 62
     7
 10
1.2639
 20
8.7062
 30
0
 11
1.3056
 21
8.7617
 31
0
  0
LINE
  8
LAYER1
  6
CONTINUOUS
 62
     7
 10
1.2639
 20
8.8451
 30
0
 11
1.3056
 21
8.8867
 31
0
  0
LINE
  8
LAYER1
  6
CONTINUOUS
 62
     7
 10
1.2639
 20
8.9701
 30
0
 11
1.3056
 21
9.0256
 31
0
  0
LINE
  8
LAYER1
  6
CONTINUOUS
 62
     7
 10
1.2639
 20
9.1089
 30
0
 11
1.3056
 21
9.1506
 31
0
  0
LINE
  8
LAYER1
  6
CONTINUOUS
 62
     7
 10
1.2639
 20
9.2339
 30
0
 11
1.3056
 21
9.2895
 31
0
  0
LINE
  8
LAYER1
  6
CONTINUOUS
 62
     7
 10
1.2639
 20
9.3728
 30
0
 11
1.3056
 21
9.4284
 31
0
  0
LINE
  8
LAYER1
  6
CONTINUOUS
 62
     7
 10
1.5139
 20
9.6228
 30
0
 11
1.5694
 21
9.6784
 31
0
  0
LINE
  8
LAYER1
  6
CONTINUOUS
 62
     7
 10
1.2639
 20
9.4978
 30
0
 11
1.3056
 21
9.5534
 31
0
  0
LINE
  8
LAYER1
  6
CONTINUOUS
 62
     7
 10
1.3611
 20
9.6089
 30
0
 11
1.4306
 21
9.6784
 31
0
  0
LINE
  8
LAYER1
  6
CONTINUOUS
 62
     7
 10
1.2222
 20
9.5951
 30
0
 11
1.3056
 21
9.6784
 31
0
  0
LINE
  8
LAYER1
  6
CONTINUOUS
 62
     7
 10
1.1111
 20
9.6228
 30
0
 11
1.1667
 21
9.6784
 31
0
  0
LINE
  8
LAYER1
  6
CONTINUOUS
 62
     7
 10
0.9861
 20
9.6228
 30
0
 11
1.0417
 21
9.6784
 31
0
  0
LINE
  8
LAYER1
  6
CONTINUOUS
 62
     7
 10
1.5694
 20
7.6367
 30
0
 11
1.5972
 21
7.6784
 31
0
  0
LINE
  8
LAYER1
  6
CONTINUOUS
 62
     7
 10
1.4306
 20
7.6367
 30
0
 11
1.4861
 21
7.6923
 31
0
  0
LINE
  8
LAYER1
  6
CONTINUOUS
 62
     7
 10
1.2917
 20
7.6367
 30
0
 11
1.375
 21
7.7062
 31
0
  0
LINE
  8
LAYER1
  6
CONTINUOUS
 62
     7
 10
1.1667
 20
7.6367
 30
0
 11
1.3056
 21
7.7895
 31
0
  0
LINE
  8
LAYER1
  6
CONTINUOUS
 62
     7
 10
1.0278
 20
7.6367
 30
0
 11
1.0972
 21
7.7062
 31
0
  0
LINE
  8
LAYER1
  6
CONTINUOUS
 62
     7
 10
1.2639
 20
7.8589
 30
0
 11
1.3056
 21
7.9145
 31
0
  0
LINE
  8
LAYER1
  6
CONTINUOUS
 62
     7
 10
1.2639
 20
7.9978
 30
0
 11
1.3056
 21
8.0534
 31
0
  0
LINE
  8
LAYER1
  6
CONTINUOUS
 62
     7
 10
1.2639
 20
8.1367
 30
0
 11
1.3056
 21
8.1784
 31
0
  0
LINE
  8
LAYER1
  6
CONTINUOUS
 62
     7
 10
1.2639
 20
8.2617
 30
0
 11
1.3056
 21
8.3173
 31
0
  0
LINE
  8
LAYER1
  6
CONTINUOUS
 62
     7
 10
1.2639
 20
8.4006
 30
0
 11
1.3056
 21
8.4423
 31
0
  0
LINE
  8
LAYER1
  6
CONTINUOUS
 62
     7
 10
1.2639
 20
8.5256
 30
0
 11
1.3056
 21
8.5812
 31
0
  0
LINE
  8
LAYER1
  6
CONTINUOUS
 62
     7
 10
1.2639
 20
8.6645
 30
0
 11
1.3056
 21
8.7201
 31
0
  0
LINE
  8
LAYER1
  6
CONTINUOUS
 62
     7
 10
1.2639
 20
8.7895
 30
0
 11
1.3056
 21
8.8451
 31
0
  0
LINE
  8
LAYER1
  6
CONTINUOUS
 62
     7
 10
1.2639
 20
8.9284
 30
0
 11
1.3056
 21
8.9839
 31
0
  0
LINE
  8
LAYER1
  6
CONTINUOUS
 62
     7
 10
1.2639
 20
9.0534
 30
0
 11
1.3056
 21
9.1089
 31
0
  0
LINE
  8
LAYER1
  6
CONTINUOUS
 62
     7
 10
1.2639
 20
9.1923
 30
0
 11
1.3056
 21
9.2478
 31
0
  0
LINE
  8
LAYER1
  6
CONTINUOUS
 62
     7
 10
1.2639
 20
9.3312
 30
0
 11
1.3056
 21
9.3728
 31
0
  0
LINE
  8
LAYER1
  6
CONTINUOUS
 62
     7
 10
1.5556
 20
9.6228
 30
0
 11
1.6111
 21
9.6784
 31
0
  0
LINE
  8
LAYER1
  6
CONTINUOUS
 62
     7
 10
1.2639
 20
9.4562
 30
0
 11
1.3056
 21
9.5117
 31
0
  0
LINE
  8
LAYER1
  6
CONTINUOUS
 62
     7
 10
1.4167
 20
9.6089
 30
0
 11
1.4861
 21
9.6784
 31
0
  0
LINE
  8
LAYER1
  6
CONTINUOUS
 62
     7
 10
1.25
 20
9.5812
 30
0
 11
1.3472
 21
9.6784
 31
0
  0
LINE
  8
LAYER1
  6
CONTINUOUS
 62
     7
 10
1.1528
 20
9.6089
 30
0
 11
1.2083
 21
9.6784
 31
0
  0
ENDBLK
  8
LAYER1
  0
BLOCK
  8
LAYER1
  2
Group3
 70
     0
 10
0
 20
0
 30
0
  0
INSERT
  8
LAYER1
  2
Group1
 10
0
 20
0
 30
0
  0
INSERT
  8
LAYER1
  2
Group2
 10
0
 20
0
 30
0
  0
ENDBLK
  8
LAYER1
  0
BLOCK
  8
LAYER1
  2
Group4
 70
     0
 10
0
 20
0
 30
0
  0
LINE
  8
LAYER1
  6
CONTINUOUS
 62
     7
 10
1.0278
 20
9.6228
 30
0
 11
1.0833
 21
9.6784
 31
0
  0
LINE
  8
LAYER1
  6
CONTINUOUS
 62
     7
 10
0.9861
 20
6.7062
 30
0
 11
1.5833
 21
6.7062
 31
0
  0
LINE
  8
LAYER1
  6
CONTINUOUS
 62
     7
 10
0.9861
 20
4.7062
 30
0
 11
1.5833
 21
4.7062
 31
0
  0
POLYLINE
  8
LAYER1
  6
CONTINUOUS
 62
     7
 66
     1
 70
     0
 40
0.001
 41
0.001
  0
VERTEX
  8
LAYER1
 10
1.1944
 20
6.6367
 30
0
 70
     0
  0
VERTEX
  8
LAYER1
 10
1.2083
 20
6.6367
 30
0
 70
     0
  0
VERTEX
  8
LAYER1
 10
1.2361
 20
6.6228
 30
0
 70
     0
  0
VERTEX
  8
LAYER1
 10
1.2361
 20
6.6089
 30
0
 70
     0
  0
VERTEX
  8
LAYER1
 10
1.25
 20
6.5951
 30
0
 70
     0
  0
VERTEX
  8
LAYER1
 10
1.2639
 20
6.5812
 30
0
 70
     0
  0
VERTEX
  8
LAYER1
 10
1.2639
 20
6.5673
 30
0
 70
     0
  0
SEQEND
  0
POLYLINE
  8
LAYER1
  6
CONTINUOUS
 62
     7
 66
     1
 70
     0
 40
0.001
 41
0.001
  0
VERTEX
  8
LAYER1
 10
1.3056
 20
6.5673
 30
0
 70
     0
  0
VERTEX
  8
LAYER1
 10
1.3056
 20
6.5812
 30
0
 70
     0
  0
VERTEX
  8
LAYER1
 10
1.3194
 20
6.5951
 30
0
 70
     0
  0
VERTEX
  8
LAYER1
 10
1.3333
 20
6.6089
 30
0
 70
     0
  0
VERTEX
  8
LAYER1
 10
1.3472
 20
6.6228
 30
0
 70
     0
  0
VERTEX
  8
LAYER1
 10
1.3611
 20
6.6367
 30
0
 70
     0
  0
VERTEX
  8
LAYER1
 10
1.375
 20
6.6367
 30
0
 70
     0
  0
SEQEND
  0
POLYLINE
  8
LAYER1
  6
CONTINUOUS
 62
     7
 66
     1
 70
     0
 40
0.001
 41
0.001
  0
VERTEX
  8
LAYER1
 10
1.375
 20
4.7617
 30
0
 70
     0
  0
VERTEX
  8
LAYER1
 10
1.3611
 20
4.7617
 30
0
 70
     0
  0
VERTEX
  8
LAYER1
 10
1.3472
 20
4.7756
 30
0
 70
     0
  0
VERTEX
  8
LAYER1
 10
1.3333
 20
4.7895
 30
0
 70
     0
  0
VERTEX
  8
LAYER1
 10
1.3194
 20
4.8034
 30
0
 70
     0
  0
VERTEX
  8
LAYER1
 10
1.3056
 20
4.8312
 30
0
 70
     0
  0
VERTEX
  8
LAYER1
 10
1.3056
 20
4.8451
 30
0
 70
     0
  0
SEQEND
  0
LINE
  8
LAYER1
  6
CONTINUOUS
 62
     7
 10
1.3056
 20
6.5673
 30
0
 11
1.3056
 21
4.8451
 31
0
  0
POLYLINE
  8
LAYER1
  6
CONTINUOUS
 62
     7
 66
     1
 70
     0
 40
0.001
 41
0.001
  0
VERTEX
  8
LAYER1
 10
1.2639
 20
4.8451
 30
0
 70
     0
  0
VERTEX
  8
LAYER1
 10
1.2639
 20
4.8312
 30
0
 70
     0
  0
VERTEX
  8
LAYER1
 10
1.25
 20
4.8034
 30
0
 70
     0
  0
VERTEX
  8
LAYER1
 10
1.2361
 20
4.7895
 30
0
 70
     0
  0
VERTEX
  8
LAYER1
 10
1.2222
 20
4.7756
 30
0
 70
     0
  0
VERTEX
  8
LAYER1
 10
1.2083
 20
4.7617
 30
0
 70
     0
  0
VERTEX
  8
LAYER1
 10
1.1944
 20
4.7617
 30
0
 70
     0
  0
SEQEND
  0
LINE
  8
LAYER1
  6
CONTINUOUS
 62
     7
 10
1.2639
 20
6.5673
 30
0
 11
1.2639
 21
4.8451
 31
0
  0
POLYLINE
  8
LAYER1
  6
CONTINUOUS
 62
     7
 66
     1
 70
     0
 40
0.001
 41
0.001
  0
VERTEX
  8
LAYER1
 10
1.5833
 20
6.6784
 30
0
 70
     0
  0
VERTEX
  8
LAYER1
 10
1.5833
 20
6.6645
 30
0
 70
     0
  0
VERTEX
  8
LAYER1
 10
1.5833
 20
6.6645
 30
0
 70
     0
  0
VERTEX
  8
LAYER1
 10
1.5694
 20
6.6645
 30
0
 70
     0
  0
VERTEX
  8
LAYER1
 10
1.5694
 20
6.6506
 30
0
 70
     0
  0
VERTEX
  8
LAYER1
 10
1.5694
 20
6.6506
 30
0
 70
     0
  0
VERTEX
  8
LAYER1
 10
1.5556
 20
6.6506
 30
0
 70
     0
  0
SEQEND
  0
LINE
  8
LAYER1
  6
CONTINUOUS
 62
     7
 10
1.5833
 20
6.6784
 30
0
 11
1.5833
 21
6.7062
 31
0
  0
LINE
  8
LAYER1
  6
CONTINUOUS
 62
     7
 10
1.375
 20
6.6367
 30
0
 11
1.5556
 21
6.6506
 31
0
  0
POLYLINE
  8
LAYER1
  6
CONTINUOUS
 62
     7
 66
     1
 70
     0
 40
0.001
 41
0.001
  0
VERTEX
  8
LAYER1
 10
1.0139
 20
6.6506
 30
0
 70
     0
  0
VERTEX
  8
LAYER1
 10
1.0139
 20
6.6506
 30
0
 70
     0
  0
VERTEX
  8
LAYER1
 10
1
 20
6.6506
 30
0
 70
     0
  0
VERTEX
  8
LAYER1
 10
1
 20
6.6645
 30
0
 70
     0
  0
VERTEX
  8
LAYER1
 10
1
 20
6.6645
 30
0
 70
     0
  0
VERTEX
  8
LAYER1
 10
0.9861
 20
6.6645
 30
0
 70
     0
  0
VERTEX
  8
LAYER1
 10
0.9861
 20
6.6784
 30
0
 70
     0
  0
SEQEND
  0
LINE
  8
LAYER1
  6
CONTINUOUS
 62
     7
 10
0.9861
 20
6.7062
 30
0
 11
0.9861
 21
6.6784
 31
0
  0
LINE
  8
LAYER1
  6
CONTINUOUS
 62
     7
 10
1.1944
 20
6.6367
 30
0
 11
1.0139
 21
6.6506
 31
0
  0
POLYLINE
  8
LAYER1
  6
CONTINUOUS
 62
     7
 66
     1
 70
     0
 40
0.001
 41
0.001
  0
VERTEX
  8
LAYER1
 10
1.5556
 20
4.7478
 30
0
 70
     0
  0
VERTEX
  8
LAYER1
 10
1.5694
 20
4.7478
 30
0
 70
     0
  0
VERTEX
  8
LAYER1
 10
1.5833
 20
4.7339
 30
0
 70
     0
  0
VERTEX
  8
LAYER1
 10
1.5833
 20
4.7201
 30
0
 70
     0
  0
VERTEX
  8
LAYER1
 10
1.5833
 20
4.7201
 30
0
 70
     0
  0
SEQEND
  0
LINE
  8
LAYER1
  6
CONTINUOUS
 62
     7
 10
1.5833
 20
4.7062
 30
0
 11
1.5833
 21
4.7201
 31
0
  0
LINE
  8
LAYER1
  6
CONTINUOUS
 62
     7
 10
1.375
 20
4.7617
 30
0
 11
1.5556
 21
4.7478
 31
0
  0
POLYLINE
  8
LAYER1
  6
CONTINUOUS
 62
     7
 66
     1
 70
     0
 40
0.001
 41
0.001
  0
VERTEX
  8
LAYER1
 10
0.9861
 20
4.7201
 30
0
 70
     0
  0
VERTEX
  8
LAYER1
 10
0.9861
 20
4.7201
 30
0
 70
     0
  0
VERTEX
  8
LAYER1
 10
1
 20
4.7478
 30
0
 70
     0
  0
VERTEX
  8
LAYER1
 10
1
 20
4.7478
 30
0
 70
     0
  0
VERTEX
  8
LAYER1
 10
1.0139
 20
4.7478
 30
0
 70
     0
  0
SEQEND
  0
LINE
  8
LAYER1
  6
CONTINUOUS
 62
     7
 10
0.9861
 20
4.7201
 30
0
 11
0.9861
 21
4.7062
 31
0
  0
ENDBLK
  8
LAYER1
  0
BLOCK
  8
LAYER1
  2
Group5
 70
     0
 10
0
 20
0
 30
0
  0
LINE
  8
LAYER1
  6
CONTINUOUS
 62
     7
 10
1.1944
 20
4.7617
 30
0
 11
1.0139
 21
4.7478
 31
0
  0
LINE
  8
LAYER1
  6
CONTINUOUS
 62
     7
 10
1.5139
 20
4.7062
 30
0
 11
1.5694
 21
4.7478
 31
0
  0
LINE
  8
LAYER1
  6
CONTINUOUS
 62
     7
 10
1.3889
 20
4.7062
 30
0
 11
1.4444
 21
4.7617
 31
0
  0
LINE
  8
LAYER1
  6
CONTINUOUS
 62
     7
 10
1.25
 20
4.7062
 30
0
 11
1.3333
 21
4.7895
 31
0
  0
LINE
  8
LAYER1
  6
CONTINUOUS
 62
     7
 10
1.1111
 20
4.7062
 30
0
 11
1.1806
 21
4.7617
 31
0
  0
LINE
  8
LAYER1
  6
CONTINUOUS
 62
     7
 10
1.2639
 20
4.8451
 30
0
 11
1.3056
 21
4.9006
 31
0
  0
LINE
  8
LAYER1
  6
CONTINUOUS
 62
     7
 10
0.9861
 20
4.7062
 30
0
 11
1.0417
 21
4.7617
 31
0
  0
LINE
  8
LAYER1
  6
CONTINUOUS
 62
     7
 10
1.2639
 20
4.9701
 30
0
 11
1.3056
 21
5.0256
 31
0
  0
LINE
  8
LAYER1
  6
CONTINUOUS
 62
     7
 10
1.2639
 20
5.1089
 30
0
 11
1.3056
 21
5.1645
 31
0
  0
LINE
  8
LAYER1
  6
CONTINUOUS
 62
     7
 10
1.2639
 20
5.2339
 30
0
 11
1.3056
 21
5.2895
 31
0
  0
LINE
  8
LAYER1
  6
CONTINUOUS
 62
     7
 10
1.2639
 20
5.3728
 30
0
 11
1.3056
 21
5.4284
 31
0
  0
LINE
  8
LAYER1
  6
CONTINUOUS
 62
     7
 10
1.2639
 20
5.5117
 30
0
 11
1.3056
 21
5.5534
 31
0
  0
LINE
  8
LAYER1
  6
CONTINUOUS
 62
     7
 10
1.2639
 20
5.6367
 30
0
 11
1.3056
 21
5.6923
 31
0
  0
LINE
  8
LAYER1
  6
CONTINUOUS
 62
     7
 10
1.2639
 20
5.7756
 30
0
 11
1.3056
 21
5.8173
 31
0
  0
LINE
  8
LAYER1
  6
CONTINUOUS
 62
     7
 10
1.2639
 20
5.9006
 30
0
 11
1.3056
 21
5.9562
 31
0
  0
LINE
  8
LAYER1
  6
CONTINUOUS
 62
     7
 10
1.2639
 20
6.0395
 30
0
 11
1.3056
 21
6.0951
 31
0
  0
LINE
  8
LAYER1
  6
CONTINUOUS
 62
     7
 10
1.2639
 20
6.1645
 30
0
 11
1.3056
 21
6.2201
 31
0
  0
LINE
  8
LAYER1
  6
CONTINUOUS
 62
     7
 10
1.2639
 20
6.3034
 30
0
 11
1.3056
 21
6.3589
 31
0
  0
LINE
  8
LAYER1
  6
CONTINUOUS
 62
     7
 10
1.2639
 20
6.4284
 30
0
 11
1.3056
 21
6.4839
 31
0
  0
LINE
  8
LAYER1
  6
CONTINUOUS
 62
     7
 10
1.4583
 20
6.6367
 30
0
 11
1.5278
 21
6.7062
 31
0
  0
LINE
  8
LAYER1
  6
CONTINUOUS
 62
     7
 10
1.2639
 20
6.5673
 30
0
 11
1.3889
 21
6.7062
 31
0
  0
LINE
  8
LAYER1
  6
CONTINUOUS
 62
     7
 10
1.1944
 20
6.6367
 30
0
 11
1.2639
 21
6.7062
 31
0
  0
LINE
  8
LAYER1
  6
CONTINUOUS
 62
     7
 10
1.0694
 20
6.6506
 30
0
 11
1.125
 21
6.7062
 31
0
  0
LINE
  8
LAYER1
  6
CONTINUOUS
 62
     7
 10
0.9861
 20
6.6923
 30
0
 11
0.9861
 21
6.7062
 31
0
  0
LINE
  8
LAYER1
  6
CONTINUOUS
 62
     7
 10
1.5556
 20
4.7062
 30
0
 11
1.5833
 21
4.7201
 31
0
  0
LINE
  8
LAYER1
  6
CONTINUOUS
 62
     7
 10
1.4306
 20
4.7062
 30
0
 11
1.4861
 21
4.7617
 31
0
  0
LINE
  8
LAYER1
  6
CONTINUOUS
 62
     7
 10
1.2917
 20
4.7062
 30
0
 11
1.3611
 21
4.7756
 31
0
  0
LINE
  8
LAYER1
  6
CONTINUOUS
 62
     7
 10
1.1667
 20
4.7062
 30
0
 11
1.3056
 21
4.8451
 31
0
  0
LINE
  8
LAYER1
  6
CONTINUOUS
 62
     7
 10
1.0278
 20
4.7062
 30
0
 11
1.0833
 21
4.7617
 31
0
  0
LINE
  8
LAYER1
  6
CONTINUOUS
 62
     7
 10
1.2639
 20
4.9284
 30
0
 11
1.3056
 21
4.9839
 31
0
  0
LINE
  8
LAYER1
  6
CONTINUOUS
 62
     7
 10
1.2639
 20
5.0673
 30
0
 11
1.3056
 21
5.1089
 31
0
  0
LINE
  8
LAYER1
  6
CONTINUOUS
 62
     7
 10
1.2639
 20
5.1923
 30
0
 11
1.3056
 21
5.2478
 31
0
  0
LINE
  8
LAYER1
  6
CONTINUOUS
 62
     7
 10
1.2639
 20
5.3312
 30
0
 11
1.3056
 21
5.3867
 31
0
  0
LINE
  8
LAYER1
  6
CONTINUOUS
 62
     7
 10
1.2639
 20
5.4562
 30
0
 11
1.3056
 21
5.5117
 31
0
  0
LINE
  8
LAYER1
  6
CONTINUOUS
 62
     7
 10
1.2639
 20
5.5951
 30
0
 11
1.3056
 21
5.6506
 31
0
  0
LINE
  8
LAYER1
  6
CONTINUOUS
 62
     7
 10
1.2639
 20
5.7339
 30
0
 11
1.3056
 21
5.7756
 31
0
  0
LINE
  8
LAYER1
  6
CONTINUOUS
 62
     7
 10
1.2639
 20
5.8589
 30
0
 11
1.3056
 21
5.9145
 31
0
  0
LINE
  8
LAYER1
  6
CONTINUOUS
 62
     7
 10
1.2639
 20
5.9978
 30
0
 11
1.3056
 21
6.0395
 31
0
  0
LINE
  8
LAYER1
  6
CONTINUOUS
 62
     7
 10
1.2639
 20
6.1228
 30
0
 11
1.3056
 21
6.1784
 31
0
  0
LINE
  8
LAYER1
  6
CONTINUOUS
 62
     7
 10
1.2639
 20
6.2617
 30
0
 11
1.3056
 21
6.3173
 31
0
  0
LINE
  8
LAYER1
  6
CONTINUOUS
 62
     7
 10
1.2639
 20
6.3867
 30
0
 11
1.3056
 21
6.4423
 31
0
  0
LINE
  8
LAYER1
  6
CONTINUOUS
 62
     7
 10
1.5139
 20
6.6506
 30
0
 11
1.5694
 21
6.7062
 31
0
  0
LINE
  8
LAYER1
  6
CONTINUOUS
 62
     7
 10
1.2639
 20
6.5256
 30
0
 11
1.3056
 21
6.5812
 31
0
  0
LINE
  8
LAYER1
  6
CONTINUOUS
 62
     7
 10
1.3611
 20
6.6367
 30
0
 11
1.4306
 21
6.7062
 31
0
  0
LINE
  8
LAYER1
  6
CONTINUOUS
 62
     7
 10
1.2222
 20
6.6228
 30
0
 11
1.3056
 21
6.7062
 31
0
  0
LINE
  8
LAYER1
  6
CONTINUOUS
 62
     7
 10
1.1111
 20
6.6367
 30
0
 11
1.1667
 21
6.7062
 31
0
  0
ENDBLK
  8
LAYER1
  0
BLOCK
  8
LAYER1
  2
Group6
 70
     0
 10
0
 20
0
 30
0
  0
INSERT
  8
LAYER1
  2
Group4
 10
0
 20
0
 30
0
  0
INSERT
  8
LAYER1
  2
Group5
 10
0
 20
0
 30
0
  0
ENDBLK
  8
LAYER1
  0
BLOCK
  8
LAYER1
  2
Group7
 70
     0
 10
0
 20
0
 30
0
  0
LINE
  8
LAYER1
  6
CONTINUOUS
 62
     7
 10
1
 20
6.6645
 30
0
 11
1.0417
 21
6.7062
 31
0
  0
LINE
  8
LAYER1
  6
CONTINUOUS
 62
     7
 10
0.9861
 20
3.8867
 30
0
 11
1.5833
 21
3.8867
 31
0
  0
LINE
  8
LAYER1
  6
CONTINUOUS
 62
     7
 10
0.9861
 20
2.1923
 30
0
 11
1.5833
 21
2.1923
 31
0
  0
POLYLINE
  8
LAYER1
  6
CONTINUOUS
 62
     7
 66
     1
 70
     0
 40
0.001
 41
0.001
  0
VERTEX
  8
LAYER1
 10
1.3056
 20
3.7617
 30
0
 70
     0
  0
VERTEX
  8
LAYER1
 10
1.3056
 20
3.7756
 30
0
 70
     0
  0
VERTEX
  8
LAYER1
 10
1.3194
 20
3.7895
 30
0
 70
     0
  0
VERTEX
  8
LAYER1
 10
1.3333
 20
3.8034
 30
0
 70
     0
  0
VERTEX
  8
LAYER1
 10
1.3472
 20
3.8173
 30
0
 70
     0
  0
VERTEX
  8
LAYER1
 10
1.3611
 20
3.8312
 30
0
 70
     0
  0
VERTEX
  8
LAYER1
 10
1.375
 20
3.8312
 30
0
 70
     0
  0
SEQEND
  0
POLYLINE
  8
LAYER1
  6
CONTINUOUS
 62
     7
 66
     1
 70
     0
 40
0.001
 41
0.001
  0
VERTEX
  8
LAYER1
 10
1.1944
 20
3.8312
 30
0
 70
     0
  0
VERTEX
  8
LAYER1
 10
1.2083
 20
3.8312
 30
0
 70
     0
  0
VERTEX
  8
LAYER1
 10
1.2361
 20
3.8173
 30
0
 70
     0
  0
VERTEX
  8
LAYER1
 10
1.2361
 20
3.8034
 30
0
 70
     0
  0
VERTEX
  8
LAYER1
 10
1.25
 20
3.7895
 30
0
 70
     0
  0
VERTEX
  8
LAYER1
 10
1.25
 20
3.7756
 30
0
 70
     0
  0
VERTEX
  8
LAYER1
 10
1.25
 20
3.7617
 30
0
 70
     0
  0
SEQEND
  0
POLYLINE
  8
LAYER1
  6
CONTINUOUS
 62
     7
 66
     1
 70
     0
 40
0.001
 41
0.001
  0
VERTEX
  8
LAYER1
 10
1.375
 20
2.2617
 30
0
 70
     0
  0
VERTEX
  8
LAYER1
 10
1.3611
 20
2.2617
 30
0
 70
     0
  0
VERTEX
  8
LAYER1
 10
1.3472
 20
2.2617
 30
0
 70
     0
  0
VERTEX
  8
LAYER1
 10
1.3333
 20
2.2756
 30
0
 70
     0
  0
VERTEX
  8
LAYER1
 10
1.3194
 20
2.2895
 30
0
 70
     0
  0
VERTEX
  8
LAYER1
 10
1.3056
 20
2.3173
 30
0
 70
     0
  0
VERTEX
  8
LAYER1
 10
1.3056
 20
2.3312
 30
0
 70
     0
  0
SEQEND
  0
LINE
  8
LAYER1
  6
CONTINUOUS
 62
     7
 10
1.3056
 20
3.7617
 30
0
 11
1.3056
 21
2.3312
 31
0
  0
POLYLINE
  8
LAYER1
  6
CONTINUOUS
 62
     7
 66
     1
 70
     0
 40
0.001
 41
0.001
  0
VERTEX
  8
LAYER1
 10
1.25
 20
2.3312
 30
0
 70
     0
  0
VERTEX
  8
LAYER1
 10
1.25
 20
2.3173
 30
0
 70
     0
  0
VERTEX
  8
LAYER1
 10
1.25
 20
2.2895
 30
0
 70
     0
  0
VERTEX
  8
LAYER1
 10
1.2361
 20
2.2756
 30
0
 70
     0
  0
VERTEX
  8
LAYER1
 10
1.2222
 20
2.2617
 30
0
 70
     0
  0
VERTEX
  8
LAYER1
 10
1.2083
 20
2.2617
 30
0
 70
     0
  0
VERTEX
  8
LAYER1
 10
1.1944
 20
2.2617
 30
0
 70
     0
  0
SEQEND
  0
LINE
  8
LAYER1
  6
CONTINUOUS
 62
     7
 10
1.25
 20
3.7617
 30
0
 11
1.25
 21
2.3312
 31
0
  0
POLYLINE
  8
LAYER1
  6
CONTINUOUS
 62
     7
 66
     1
 70
     0
 40
0.001
 41
0.001
  0
VERTEX
  8
LAYER1
 10
1.0139
 20
3.8451
 30
0
 70
     0
  0
VERTEX
  8
LAYER1
 10
1
 20
3.8451
 30
0
 70
     0
  0
VERTEX
  8
LAYER1
 10
1
 20
3.8451
 30
0
 70
     0
  0
VERTEX
  8
LAYER1
 10
0.9861
 20
3.8589
 30
0
 70
     0
  0
VERTEX
  8
LAYER1
 10
0.9861
 20
3.8728
 30
0
 70
     0
  0
SEQEND
  0
LINE
  8
LAYER1
  6
CONTINUOUS
 62
     7
 10
0.9861
 20
3.8867
 30
0
 11
0.9861
 21
3.8728
 31
0
  0
LINE
  8
LAYER1
  6
CONTINUOUS
 62
     7
 10
1.1944
 20
3.8312
 30
0
 11
1.0139
 21
3.8451
 31
0
  0
POLYLINE
  8
LAYER1
  6
CONTINUOUS
 62
     7
 66
     1
 70
     0
 40
0.001
 41
0.001
  0
VERTEX
  8
LAYER1
 10
1.5833
 20
3.8728
 30
0
 70
     0
  0
VERTEX
  8
LAYER1
 10
1.5833
 20
3.8589
 30
0
 70
     0
  0
VERTEX
  8
LAYER1
 10
1.5833
 20
3.8589
 30
0
 70
     0
  0
VERTEX
  8
LAYER1
 10
1.5694
 20
3.8451
 30
0
 70
     0
  0
VERTEX
  8
LAYER1
 10
1.5556
 20
3.8451
 30
0
 70
     0
  0
SEQEND
  0
LINE
  8
LAYER1
  6
CONTINUOUS
 62
     7
 10
1.5833
 20
3.8728
 30
0
 11
1.5833
 21
3.8867
 31
0
  0
LINE
  8
LAYER1
  6
CONTINUOUS
 62
     7
 10
1.375
 20
3.8312
 30
0
 11
1.5556
 21
3.8451
 31
0
  0
POLYLINE
  8
LAYER1
  6
CONTINUOUS
 62
     7
 66
     1
 70
     0
 40
0.001
 41
0.001
  0
VERTEX
  8
LAYER1
 10
1.5556
 20
2.2478
 30
0
 70
     0
  0
VERTEX
  8
LAYER1
 10
1.5694
 20
2.2339
 30
0
 70
     0
  0
VERTEX
  8
LAYER1
 10
1.5833
 20
2.2201
 30
0
 70
     0
  0
VERTEX
  8
LAYER1
 10
1.5833
 20
2.2062
 30
0
 70
     0
  0
VERTEX
  8
LAYER1
 10
1.5833
 20
2.2062
 30
0
 70
     0
  0
SEQEND
  0
LINE
  8
LAYER1
  6
CONTINUOUS
 62
     7
 10
1.5833
 20
2.1923
 30
0
 11
1.5833
 21
2.2062
 31
0
  0
LINE
  8
LAYER1
  6
CONTINUOUS
 62
     7
 10
1.375
 20
2.2617
 30
0
 11
1.5556
 21
2.2478
 31
0
  0
POLYLINE
  8
LAYER1
  6
CONTINUOUS
 62
     7
 66
     1
 70
     0
 40
0.001
 41
0.001
  0
VERTEX
  8
LAYER1
 10
0.9861
 20
2.2062
 30
0
 70
     0
  0
VERTEX
  8
LAYER1
 10
0.9861
 20
2.2062
 30
0
 70
     0
  0
VERTEX
  8
LAYER1
 10
1
 20
2.2339
 30
0
 70
     0
  0
VERTEX
  8
LAYER1
 10
1
 20
2.2339
 30
0
 70
     0
  0
VERTEX
  8
LAYER1
 10
1
 20
2.2339
 30
0
 70
     0
  0
VERTEX
  8
LAYER1
 10
1.0139
 20
2.2478
 30
0
 70
     0
  0
VERTEX
  8
LAYER1
 10
1.0139
 20
2.2478
 30
0
 70
     0
  0
SEQEND
  0
LINE
  8
LAYER1
  6
CONTINUOUS
 62
     7
 10
0.9861
 20
2.2062
 30
0
 11
0.9861
 21
2.1923
 31
0
  0
ENDBLK
  8
LAYER1
  0
BLOCK
  8
LAYER1
  2
Group8
 70
     0
 10
0
 20
0
 30
0
  0
LINE
  8
LAYER1
  6
CONTINUOUS
 62
     7
 10
1.1944
 20
2.2617
 30
0
 11
1.0139
 21
2.2478
 31
0
  0
LINE
  8
LAYER1
  6
CONTINUOUS
 62
     7
 10
1.5
 20
2.1923
 30
0
 11
1.5417
 21
2.2478
 31
0
  0
LINE
  8
LAYER1
  6
CONTINUOUS
 62
     7
 10
1.3611
 20
2.1923
 30
0
 11
1.4167
 21
2.2617
 31
0
  0
LINE
  8
LAYER1
  6
CONTINUOUS
 62
     7
 10
1.2361
 20
2.1923
 30
0
 11
1.3194
 21
2.2895
 31
0
  0
LINE
  8
LAYER1
  6
CONTINUOUS
 62
     7
 10
1.0972
 20
2.1923
 30
0
 11
1.1528
 21
2.2617
 31
0
  0
LINE
  8
LAYER1
  6
CONTINUOUS
 62
     7
 10
1.25
 20
2.3589
 30
0
 11
1.3056
 21
2.4145
 31
0
  0
LINE
  8
LAYER1
  6
CONTINUOUS
 62
     7
 10
0.9861
 20
2.2201
 30
0
 11
1.0139
 21
2.2478
 31
0
  0
LINE
  8
LAYER1
  6
CONTINUOUS
 62
     7
 10
1.25
 20
2.4839
 30
0
 11
1.3056
 21
2.5395
 31
0
  0
LINE
  8
LAYER1
  6
CONTINUOUS
 62
     7
 10
1.25
 20
2.6228
 30
0
 11
1.3056
 21
2.6784
 31
0
  0
LINE
  8
LAYER1
  6
CONTINUOUS
 62
     7
 10
1.25
 20
2.7478
 30
0
 11
1.3056
 21
2.8034
 31
0
  0
LINE
  8
LAYER1
  6
CONTINUOUS
 62
     7
 10
1.25
 20
2.8867
 30
0
 11
1.3056
 21
2.9423
 31
0
  0
LINE
  8
LAYER1
  6
CONTINUOUS
 62
     7
 10
1.25
 20
3.0117
 30
0
 11
1.3056
 21
3.0673
 31
0
  0
LINE
  8
LAYER1
  6
CONTINUOUS
 62
     7
 10
1.25
 20
3.1506
 30
0
 11
1.3056
 21
3.2062
 31
0
  0
LINE
  8
LAYER1
  6
CONTINUOUS
 62
     7
 10
1.25
 20
3.2895
 30
0
 11
1.3056
 21
3.3451
 31
0
  0
LINE
  8
LAYER1
  6
CONTINUOUS
 62
     7
 10
1.25
 20
3.4145
 30
0
 11
1.3056
 21
3.4701
 31
0
  0
LINE
  8
LAYER1
  6
CONTINUOUS
 62
     7
 10
1.25
 20
3.5534
 30
0
 11
1.3056
 21
3.6089
 31
0
  0
LINE
  8
LAYER1
  6
CONTINUOUS
 62
     7
 10
1.5556
 20
3.8451
 30
0
 11
1.5833
 21
3.8728
 31
0
  0
LINE
  8
LAYER1
  6
CONTINUOUS
 62
     7
 10
1.25
 20
3.6784
 30
0
 11
1.3056
 21
3.7339
 31
0
  0
LINE
  8
LAYER1
  6
CONTINUOUS
 62
     7
 10
1.4028
 20
3.8312
 30
0
 11
1.4583
 21
3.8867
 31
0
  0
LINE
  8
LAYER1
  6
CONTINUOUS
 62
     7
 10
1.2361
 20
3.8034
 30
0
 11
1.3333
 21
3.8867
 31
0
  0
LINE
  8
LAYER1
  6
CONTINUOUS
 62
     7
 10
1.1389
 20
3.8312
 30
0
 11
1.1944
 21
3.8867
 31
0
  0
LINE
  8
LAYER1
  6
CONTINUOUS
 62
     7
 10
1.0139
 20
3.8451
 30
0
 11
1.0694
 21
3.8867
 31
0
  0
LINE
  8
LAYER1
  6
CONTINUOUS
 62
     7
 10
1.5417
 20
2.1923
 30
0
 11
1.5694
 21
2.2339
 31
0
  0
LINE
  8
LAYER1
  6
CONTINUOUS
 62
     7
 10
1.4028
 20
2.1923
 30
0
 11
1.4583
 21
2.2478
 31
0
  0
LINE
  8
LAYER1
  6
CONTINUOUS
 62
     7
 10
1.2778
 20
2.1923
 30
0
 11
1.3472
 21
2.2617
 31
0
  0
LINE
  8
LAYER1
  6
CONTINUOUS
 62
     7
 10
1.1389
 20
2.1923
 30
0
 11
1.2083
 21
2.2617
 31
0
  0
LINE
  8
LAYER1
  6
CONTINUOUS
 62
     7
 10
1.25
 20
2.3034
 30
0
 11
1.3056
 21
2.3589
 31
0
  0
LINE
  8
LAYER1
  6
CONTINUOUS
 62
     7
 10
1.0139
 20
2.1923
 30
0
 11
1.0556
 21
2.2478
 31
0
  0
LINE
  8
LAYER1
  6
CONTINUOUS
 62
     7
 10
1.25
 20
2.4423
 30
0
 11
1.3056
 21
2.4978
 31
0
  0
LINE
  8
LAYER1
  6
CONTINUOUS
 62
     7
 10
1.25
 20
2.5812
 30
0
 11
1.3056
 21
2.6367
 31
0
  0
LINE
  8
LAYER1
  6
CONTINUOUS
 62
     7
 10
1.25
 20
2.7062
 30
0
 11
1.3056
 21
2.7617
 31
0
  0
LINE
  8
LAYER1
  6
CONTINUOUS
 62
     7
 10
1.25
 20
2.8451
 30
0
 11
1.3056
 21
2.9006
 31
0
  0
LINE
  8
LAYER1
  6
CONTINUOUS
 62
     7
 10
1.25
 20
2.9701
 30
0
 11
1.3056
 21
3.0256
 31
0
  0
LINE
  8
LAYER1
  6
CONTINUOUS
 62
     7
 10
1.25
 20
3.1089
 30
0
 11
1.3056
 21
3.1645
 31
0
  0
LINE
  8
LAYER1
  6
CONTINUOUS
 62
     7
 10
1.25
 20
3.2339
 30
0
 11
1.3056
 21
3.2895
 31
0
  0
LINE
  8
LAYER1
  6
CONTINUOUS
 62
     7
 10
1.25
 20
3.3728
 30
0
 11
1.3056
 21
3.4284
 31
0
  0
LINE
  8
LAYER1
  6
CONTINUOUS
 62
     7
 10
1.25
 20
3.4978
 30
0
 11
1.3056
 21
3.5534
 31
0
  0
LINE
  8
LAYER1
  6
CONTINUOUS
 62
     7
 10
1.25
 20
3.6367
 30
0
 11
1.3056
 21
3.6923
 31
0
  0
LINE
  8
LAYER1
  6
CONTINUOUS
 62
     7
 10
1.4583
 20
3.8312
 30
0
 11
1.5139
 21
3.8867
 31
0
  0
LINE
  8
LAYER1
  6
CONTINUOUS
 62
     7
 10
1.25
 20
3.7756
 30
0
 11
1.375
 21
3.8867
 31
0
  0
LINE
  8
LAYER1
  6
CONTINUOUS
 62
     7
 10
1.1806
 20
3.8312
 30
0
 11
1.2361
 21
3.8867
 31
0
  0
ENDBLK
  8
LAYER1
  0
BLOCK
  8
LAYER1
  2
Group9
 70
     0
 10
0
 20
0
 30
0
  0
INSERT
  8
LAYER1
  2
Group7
 10
0
 20
0
 30
0
  0
INSERT
  8
LAYER1
  2
Group8
 10
0
 20
0
 30
0
  0
ENDBLK
  8
LAYER1
  0
BLOCK
  8
LAYER1
  2
Group10
 70
     0
 10
0
 20
0
 30
0
  0
LINE
  8
LAYER1
  6
CONTINUOUS
 62
     7
 10
1.0556
 20
3.8451
 30
0
 11
1.1111
 21
3.8867
 31
0
  0
LINE
  8
LAYER1
  6
CONTINUOUS
 62
     7
 10
2.9444
 20
9.4978
 30
0
 11
3.4583
 21
9.4978
 31
0
  0
LINE
  8
LAYER1
  6
CONTINUOUS
 62
     7
 10
2.9444
 20
7.8312
 30
0
 11
3.4583
 21
7.8312
 31
0
  0
POLYLINE
  8
LAYER1
  6
CONTINUOUS
 62
     7
 66
     1
 70
     0
 40
0.001
 41
0.001
  0
VERTEX
  8
LAYER1
 10
3.1111
 20
9.4284
 30
0
 70
     0
  0
VERTEX
  8
LAYER1
 10
3.125
 20
9.4284
 30
0
 70
     0
  0
VERTEX
  8
LAYER1
 10
3.1528
 20
9.4145
 30
0
 70
     0
  0
VERTEX
  8
LAYER1
 10
3.1528
 20
9.4145
 30
0
 70
     0
  0
VERTEX
  8
LAYER1
 10
3.1667
 20
9.4006
 30
0
 70
     0
  0
VERTEX
  8
LAYER1
 10
3.1806
 20
9.3728
 30
0
 70
     0
  0
VERTEX
  8
LAYER1
 10
3.1806
 20
9.3589
 30
0
 70
     0
  0
SEQEND
  0
POLYLINE
  8
LAYER1
  6
CONTINUOUS
 62
     7
 66
     1
 70
     0
 40
0.001
 41
0.001
  0
VERTEX
  8
LAYER1
 10
3.2222
 20
9.3589
 30
0
 70
     0
  0
VERTEX
  8
LAYER1
 10
3.2222
 20
9.3728
 30
0
 70
     0
  0
VERTEX
  8
LAYER1
 10
3.2361
 20
9.4006
 30
0
 70
     0
  0
VERTEX
  8
LAYER1
 10
3.2361
 20
9.4145
 30
0
 70
     0
  0
VERTEX
  8
LAYER1
 10
3.25
 20
9.4145
 30
0
 70
     0
  0
VERTEX
  8
LAYER1
 10
3.2778
 20
9.4284
 30
0
 70
     0
  0
VERTEX
  8
LAYER1
 10
3.2778
 20
9.4284
 30
0
 70
     0
  0
SEQEND
  0
POLYLINE
  8
LAYER1
  6
CONTINUOUS
 62
     7
 66
     1
 70
     0
 40
0.001
 41
0.001
  0
VERTEX
  8
LAYER1
 10
3.2778
 20
7.8867
 30
0
 70
     0
  0
VERTEX
  8
LAYER1
 10
3.2778
 20
7.8867
 30
0
 70
     0
  0
VERTEX
  8
LAYER1
 10
3.25
 20
7.9006
 30
0
 70
     0
  0
VERTEX
  8
LAYER1
 10
3.2361
 20
7.9145
 30
0
 70
     0
  0
VERTEX
  8
LAYER1
 10
3.2361
 20
7.9145
 30
0
 70
     0
  0
VERTEX
  8
LAYER1
 10
3.2222
 20
7.9423
 30
0
 70
     0
  0
VERTEX
  8
LAYER1
 10
3.2222
 20
7.9562
 30
0
 70
     0
  0
SEQEND
  0
LINE
  8
LAYER1
  6
CONTINUOUS
 62
     7
 10
3.2222
 20
9.3589
 30
0
 11
3.2222
 21
7.9562
 31
0
  0
POLYLINE
  8
LAYER1
  6
CONTINUOUS
 62
     7
 66
     1
 70
     0
 40
0.001
 41
0.001
  0
VERTEX
  8
LAYER1
 10
3.1806
 20
7.9562
 30
0
 70
     0
  0
VERTEX
  8
LAYER1
 10
3.1806
 20
7.9423
 30
0
 70
     0
  0
VERTEX
  8
LAYER1
 10
3.1667
 20
7.9145
 30
0
 70
     0
  0
VERTEX
  8
LAYER1
 10
3.1528
 20
7.9145
 30
0
 70
     0
  0
VERTEX
  8
LAYER1
 10
3.1528
 20
7.9006
 30
0
 70
     0
  0
VERTEX
  8
LAYER1
 10
3.125
 20
7.8867
 30
0
 70
     0
  0
VERTEX
  8
LAYER1
 10
3.1111
 20
7.8867
 30
0
 70
     0
  0
SEQEND
  0
LINE
  8
LAYER1
  6
CONTINUOUS
 62
     7
 10
3.1806
 20
9.3589
 30
0
 11
3.1806
 21
7.9562
 31
0
  0
POLYLINE
  8
LAYER1
  6
CONTINUOUS
 62
     7
 66
     1
 70
     0
 40
0.001
 41
0.001
  0
VERTEX
  8
LAYER1
 10
2.9722
 20
9.4423
 30
0
 70
     0
  0
VERTEX
  8
LAYER1
 10
2.9722
 20
9.4423
 30
0
 70
     0
  0
VERTEX
  8
LAYER1
 10
2.9583
 20
9.4423
 30
0
 70
     0
  0
VERTEX
  8
LAYER1
 10
2.9444
 20
9.4562
 30
0
 70
     0
  0
VERTEX
  8
LAYER1
 10
2.9444
 20
9.4701
 30
0
 70
     0
  0
SEQEND
  0
LINE
  8
LAYER1
  6
CONTINUOUS
 62
     7
 10
2.9444
 20
9.4978
 30
0
 11
2.9444
 21
9.4701
 31
0
  0
LINE
  8
LAYER1
  6
CONTINUOUS
 62
     7
 10
3.1111
 20
9.4284
 30
0
 11
2.9722
 21
9.4423
 31
0
  0
POLYLINE
  8
LAYER1
  6
CONTINUOUS
 62
     7
 66
     1
 70
     0
 40
0.001
 41
0.001
  0
VERTEX
  8
LAYER1
 10
3.4583
 20
9.4701
 30
0
 70
     0
  0
VERTEX
  8
LAYER1
 10
3.4583
 20
9.4562
 30
0
 70
     0
  0
VERTEX
  8
LAYER1
 10
3.4444
 20
9.4423
 30
0
 70
     0
  0
VERTEX
  8
LAYER1
 10
3.4444
 20
9.4423
 30
0
 70
     0
  0
VERTEX
  8
LAYER1
 10
3.4306
 20
9.4423
 30
0
 70
     0
  0
SEQEND
  0
LINE
  8
LAYER1
  6
CONTINUOUS
 62
     7
 10
3.2778
 20
9.4284
 30
0
 11
3.4306
 21
9.4423
 31
0
  0
LINE
  8
LAYER1
  6
CONTINUOUS
 62
     7
 10
3.4583
 20
9.4701
 30
0
 11
3.4583
 21
9.4978
 31
0
  0
POLYLINE
  8
LAYER1
  6
CONTINUOUS
 62
     7
 66
     1
 70
     0
 40
0.001
 41
0.001
  0
VERTEX
  8
LAYER1
 10
3.4306
 20
7.8728
 30
0
 70
     0
  0
VERTEX
  8
LAYER1
 10
3.4444
 20
7.8728
 30
0
 70
     0
  0
VERTEX
  8
LAYER1
 10
3.4583
 20
7.8728
 30
0
 70
     0
  0
VERTEX
  8
LAYER1
 10
3.4583
 20
7.8728
 30
0
 70
     0
  0
VERTEX
  8
LAYER1
 10
3.4583
 20
7.8589
 30
0
 70
     0
  0
VERTEX
  8
LAYER1
 10
3.4583
 20
7.8451
 30
0
 70
     0
  0
VERTEX
  8
LAYER1
 10
3.4583
 20
7.8451
 30
0
 70
     0
  0
SEQEND
  0
LINE
  8
LAYER1
  6
CONTINUOUS
 62
     7
 10
3.2778
 20
7.8867
 30
0
 11
3.4306
 21
7.8728
 31
0
  0
LINE
  8
LAYER1
  6
CONTINUOUS
 62
     7
 10
3.4583
 20
7.8312
 30
0
 11
3.4583
 21
7.8451
 31
0
  0
POLYLINE
  8
LAYER1
  6
CONTINUOUS
 62
     7
 66
     1
 70
     0
 40
0.001
 41
0.001
  0
VERTEX
  8
LAYER1
 10
2.9444
 20
7.8451
 30
0
 70
     0
  0
VERTEX
  8
LAYER1
 10
2.9444
 20
7.8451
 30
0
 70
     0
  0
VERTEX
  8
LAYER1
 10
2.9444
 20
7.8589
 30
0
 70
     0
  0
VERTEX
  8
LAYER1
 10
2.9444
 20
7.8728
 30
0
 70
     0
  0
VERTEX
  8
LAYER1
 10
2.9583
 20
7.8728
 30
0
 70
     0
  0
VERTEX
  8
LAYER1
 10
2.9722
 20
7.8728
 30
0
 70
     0
  0
VERTEX
  8
LAYER1
 10
2.9722
 20
7.8728
 30
0
 70
     0
  0
SEQEND
  0
LINE
  8
LAYER1
  6
CONTINUOUS
 62
     7
 10
2.9444
 20
7.8451
 30
0
 11
2.9444
 21
7.8312
 31
0
  0
ENDBLK
  8
LAYER1
  0
BLOCK
  8
LAYER1
  2
Group11
 70
     0
 10
0
 20
0
 30
0
  0
LINE
  8
LAYER1
  6
CONTINUOUS
 62
     7
 10
3.1111
 20
7.8867
 30
0
 11
2.9722
 21
7.8728
 31
0
  0
LINE
  8
LAYER1
  6
CONTINUOUS
 62
     7
 10
3.4028
 20
7.8312
 30
0
 11
3.4444
 21
7.8728
 31
0
  0
LINE
  8
LAYER1
  6
CONTINUOUS
 62
     7
 10
3.2639
 20
7.8312
 30
0
 11
3.3333
 21
7.8867
 31
0
  0
LINE
  8
LAYER1
  6
CONTINUOUS
 62
     7
 10
3.1389
 20
7.8312
 30
0
 11
3.2361
 21
7.9145
 31
0
  0
LINE
  8
LAYER1
  6
CONTINUOUS
 62
     7
 10
3
 20
7.8312
 30
0
 11
3.0694
 21
7.8867
 31
0
  0
LINE
  8
LAYER1
  6
CONTINUOUS
 62
     7
 10
3.1806
 20
7.9978
 30
0
 11
3.2222
 21
8.0395
 31
0
  0
LINE
  8
LAYER1
  6
CONTINUOUS
 62
     7
 10
3.1806
 20
8.1367
 30
0
 11
3.2222
 21
8.1784
 31
0
  0
LINE
  8
LAYER1
  6
CONTINUOUS
 62
     7
 10
3.1806
 20
8.2617
 30
0
 11
3.2222
 21
8.3034
 31
0
  0
LINE
  8
LAYER1
  6
CONTINUOUS
 62
     7
 10
3.1806
 20
8.4006
 30
0
 11
3.2222
 21
8.4423
 31
0
  0
LINE
  8
LAYER1
  6
CONTINUOUS
 62
     7
 10
3.1806
 20
8.5256
 30
0
 11
3.2222
 21
8.5673
 31
0
  0
LINE
  8
LAYER1
  6
CONTINUOUS
 62
     7
 10
3.1806
 20
8.6645
 30
0
 11
3.2222
 21
8.7062
 31
0
  0
LINE
  8
LAYER1
  6
CONTINUOUS
 62
     7
 10
3.1806
 20
8.8034
 30
0
 11
3.2222
 21
8.8451
 31
0
  0
LINE
  8
LAYER1
  6
CONTINUOUS
 62
     7
 10
3.1806
 20
8.9284
 30
0
 11
3.2222
 21
8.9701
 31
0
  0
LINE
  8
LAYER1
  6
CONTINUOUS
 62
     7
 10
3.1806
 20
9.0673
 30
0
 11
3.2222
 21
9.1089
 31
0
  0
LINE
  8
LAYER1
  6
CONTINUOUS
 62
     7
 10
3.1806
 20
9.1923
 30
0
 11
3.2222
 21
9.2339
 31
0
  0
LINE
  8
LAYER1
  6
CONTINUOUS
 62
     7
 10
3.4306
 20
9.4423
 30
0
 11
3.4583
 21
9.4839
 31
0
  0
LINE
  8
LAYER1
  6
CONTINUOUS
 62
     7
 10
3.1806
 20
9.3312
 30
0
 11
3.2222
 21
9.3728
 31
0
  0
LINE
  8
LAYER1
  6
CONTINUOUS
 62
     7
 10
3.2778
 20
9.4284
 30
0
 11
3.3472
 21
9.4978
 31
0
  0
LINE
  8
LAYER1
  6
CONTINUOUS
 62
     7
 10
3.1389
 20
9.4284
 30
0
 11
3.2083
 21
9.4978
 31
0
  0
LINE
  8
LAYER1
  6
CONTINUOUS
 62
     7
 10
3.0278
 20
9.4423
 30
0
 11
3.0833
 21
9.4978
 31
0
  0
LINE
  8
LAYER1
  6
CONTINUOUS
 62
     7
 10
2.9444
 20
9.4839
 30
0
 11
2.9444
 21
9.4978
 31
0
  0
LINE
  8
LAYER1
  6
CONTINUOUS
 62
     7
 10
3.4444
 20
7.8312
 30
0
 11
3.4583
 21
7.8451
 31
0
  0
LINE
  8
LAYER1
  6
CONTINUOUS
 62
     7
 10
3.3194
 20
7.8312
 30
0
 11
3.375
 21
7.8867
 31
0
  0
LINE
  8
LAYER1
  6
CONTINUOUS
 62
     7
 10
3.1806
 20
7.8312
 30
0
 11
3.25
 21
7.9006
 31
0
  0
LINE
  8
LAYER1
  6
CONTINUOUS
 62
     7
 10
3.0556
 20
7.8312
 30
0
 11
3.1111
 21
7.8867
 31
0
  0
LINE
  8
LAYER1
  6
CONTINUOUS
 62
     7
 10
3.1806
 20
7.9562
 30
0
 11
3.2222
 21
7.9978
 31
0
  0
LINE
  8
LAYER1
  6
CONTINUOUS
 62
     7
 10
2.9444
 20
7.8451
 30
0
 11
2.9722
 21
7.8728
 31
0
  0
LINE
  8
LAYER1
  6
CONTINUOUS
 62
     7
 10
3.1806
 20
8.0951
 30
0
 11
3.2222
 21
8.1367
 31
0
  0
LINE
  8
LAYER1
  6
CONTINUOUS
 62
     7
 10
3.1806
 20
8.2201
 30
0
 11
3.2222
 21
8.2617
 31
0
  0
LINE
  8
LAYER1
  6
CONTINUOUS
 62
     7
 10
3.1806
 20
8.3589
 30
0
 11
3.2222
 21
8.4006
 31
0
  0
LINE
  8
LAYER1
  6
CONTINUOUS
 62
     7
 10
3.1806
 20
8.4839
 30
0
 11
3.2222
 21
8.5256
 31
0
  0
LINE
  8
LAYER1
  6
CONTINUOUS
 62
     7
 10
3.1806
 20
8.6228
 30
0
 11
3.2222
 21
8.6645
 31
0
  0
LINE
  8
LAYER1
  6
CONTINUOUS
 62
     7
 10
3.1806
 20
8.7478
 30
0
 11
3.2222
 21
8.7895
 31
0
  0
LINE
  8
LAYER1
  6
CONTINUOUS
 62
     7
 10
3.1806
 20
8.8867
 30
0
 11
3.2222
 21
8.9284
 31
0
  0
LINE
  8
LAYER1
  6
CONTINUOUS
 62
     7
 10
3.1806
 20
9.0117
 30
0
 11
3.2222
 21
9.0673
 31
0
  0
LINE
  8
LAYER1
  6
CONTINUOUS
 62
     7
 10
3.1806
 20
9.1506
 30
0
 11
3.2222
 21
9.1923
 31
0
  0
LINE
  8
LAYER1
  6
CONTINUOUS
 62
     7
 10
3.1806
 20
9.2895
 30
0
 11
3.2222
 21
9.3312
 31
0
  0
LINE
  8
LAYER1
  6
CONTINUOUS
 62
     7
 10
3.3333
 20
9.4284
 30
0
 11
3.3889
 21
9.4978
 31
0
  0
LINE
  8
LAYER1
  6
CONTINUOUS
 62
     7
 10
3.1667
 20
9.4006
 30
0
 11
3.25
 21
9.4978
 31
0
  0
LINE
  8
LAYER1
  6
CONTINUOUS
 62
     7
 10
3.0694
 20
9.4423
 30
0
 11
3.125
 21
9.4978
 31
0
  0
ENDBLK
  8
LAYER1
  0
BLOCK
  8
LAYER1
  2
Group12
 70
     0
 10
0
 20
0
 30
0
  0
INSERT
  8
LAYER1
  2
Group10
 10
0
 20
0
 30
0
  0
INSERT
  8
LAYER1
  2
Group11
 10
0
 20
0
 30
0
  0
ENDBLK
  8
LAYER1
  0
BLOCK
  8
LAYER1
  2
Group13
 70
     0
 10
0
 20
0
 30
0
  0
LINE
  8
LAYER1
  6
CONTINUOUS
 62
     7
 10
2.9444
 20
9.4562
 30
0
 11
2.9861
 21
9.4978
 31
0
  0
LINE
  8
LAYER1
  6
CONTINUOUS
 62
     7
 10
2.9444
 20
6.4562
 30
0
 11
3.4444
 21
6.4562
 31
0
  0
LINE
  8
LAYER1
  6
CONTINUOUS
 62
     7
 10
2.9444
 20
4.9562
 30
0
 11
3.4444
 21
4.9562
 31
0
  0
POLYLINE
  8
LAYER1
  6
CONTINUOUS
 62
     7
 66
     1
 70
     0
 40
0.001
 41
0.001
  0
VERTEX
  8
LAYER1
 10
2.9722
 20
6.4006
 30
0
 70
     0
  0
VERTEX
  8
LAYER1
 10
2.9583
 20
6.4145
 30
0
 70
     0
  0
VERTEX
  8
LAYER1
 10
2.9583
 20
6.4145
 30
0
 70
     0
  0
VERTEX
  8
LAYER1
 10
2.9444
 20
6.4145
 30
0
 70
     0
  0
VERTEX
  8
LAYER1
 10
2.9444
 20
6.4284
 30
0
 70
     0
  0
SEQEND
  0
LINE
  8
LAYER1
  6
CONTINUOUS
 62
     7
 10
2.9444
 20
6.4562
 30
0
 11
2.9444
 21
6.4284
 31
0
  0
POLYLINE
  8
LAYER1
  6
CONTINUOUS
 62
     7
 66
     1
 70
     0
 40
0.001
 41
0.001
  0
VERTEX
  8
LAYER1
 10
3.4444
 20
6.4284
 30
0
 70
     0
  0
VERTEX
  8
LAYER1
 10
3.4444
 20
6.4145
 30
0
 70
     0
  0
VERTEX
  8
LAYER1
 10
3.4306
 20
6.4006
 30
0
 70
     0
  0
VERTEX
  8
LAYER1
 10
3.4306
 20
6.4006
 30
0
 70
     0
  0
VERTEX
  8
LAYER1
 10
3.4167
 20
6.4006
 30
0
 70
     0
  0
SEQEND
  0
LINE
  8
LAYER1
  6
CONTINUOUS
 62
     7
 10
3.4444
 20
6.4284
 30
0
 11
3.4444
 21
6.4562
 31
0
  0
POLYLINE
  8
LAYER1
  6
CONTINUOUS
 62
     7
 66
     1
 70
     0
 40
0.001
 41
0.001
  0
VERTEX
  8
LAYER1
 10
2.9444
 20
4.9701
 30
0
 70
     0
  0
VERTEX
  8
LAYER1
 10
2.9444
 20
4.9701
 30
0
 70
     0
  0
VERTEX
  8
LAYER1
 10
2.9583
 20
4.9978
 30
0
 70
     0
  0
VERTEX
  8
LAYER1
 10
2.9583
 20
4.9978
 30
0
 70
     0
  0
VERTEX
  8
LAYER1
 10
2.9722
 20
4.9978
 30
0
 70
     0
  0
SEQEND
  0
LINE
  8
LAYER1
  6
CONTINUOUS
 62
     7
 10
2.9444
 20
4.9701
 30
0
 11
2.9444
 21
4.9562
 31
0
  0
POLYLINE
  8
LAYER1
  6
CONTINUOUS
 62
     7
 66
     1
 70
     0
 40
0.001
 41
0.001
  0
VERTEX
  8
LAYER1
 10
3.4167
 20
4.9978
 30
0
 70
     0
  0
VERTEX
  8
LAYER1
 10
3.4306
 20
4.9978
 30
0
 70
     0
  0
VERTEX
  8
LAYER1
 10
3.4444
 20
4.9978
 30
0
 70
     0
  0
VERTEX
  8
LAYER1
 10
3.4444
 20
4.9978
 30
0
 70
     0
  0
VERTEX
  8
LAYER1
 10
3.4444
 20
4.9839
 30
0
 70
     0
  0
VERTEX
  8
LAYER1
 10
3.4444
 20
4.9701
 30
0
 70
     0
  0
VERTEX
  8
LAYER1
 10
3.4444
 20
4.9701
 30
0
 70
     0
  0
SEQEND
  0
LINE
  8
LAYER1
  6
CONTINUOUS
 62
     7
 10
3.4444
 20
4.9562
 30
0
 11
3.4444
 21
4.9701
 31
0
  0
POLYLINE
  8
LAYER1
  6
CONTINUOUS
 62
     7
 66
     1
 70
     0
 40
0.001
 41
0.001
  0
VERTEX
  8
LAYER1
 10
3.2222
 20
6.3173
 30
0
 70
     0
  0
VERTEX
  8
LAYER1
 10
3.2222
 20
6.3312
 30
0
 70
     0
  0
VERTEX
  8
LAYER1
 10
3.2361
 20
6.3589
 30
0
 70
     0
  0
VERTEX
  8
LAYER1
 10
3.2361
 20
6.3728
 30
0
 70
     0
  0
VERTEX
  8
LAYER1
 10
3.2361
 20
6.3728
 30
0
 70
     0
  0
VERTEX
  8
LAYER1
 10
3.2639
 20
6.3867
 30
0
 70
     0
  0
VERTEX
  8
LAYER1
 10
3.2778
 20
6.3867
 30
0
 70
     0
  0
SEQEND
  0
LINE
  8
LAYER1
  6
CONTINUOUS
 62
     7
 10
3.2778
 20
6.3867
 30
0
 11
3.4167
 21
6.4006
 31
0
  0
POLYLINE
  8
LAYER1
  6
CONTINUOUS
 62
     7
 66
     1
 70
     0
 40
0.001
 41
0.001
  0
VERTEX
  8
LAYER1
 10
3.125
 20
6.3867
 30
0
 70
     0
  0
VERTEX
  8
LAYER1
 10
3.1389
 20
6.3867
 30
0
 70
     0
  0
VERTEX
  8
LAYER1
 10
3.1528
 20
6.3728
 30
0
 70
     0
  0
VERTEX
  8
LAYER1
 10
3.1667
 20
6.3728
 30
0
 70
     0
  0
VERTEX
  8
LAYER1
 10
3.1806
 20
6.3589
 30
0
 70
     0
  0
VERTEX
  8
LAYER1
 10
3.1806
 20
6.3312
 30
0
 70
     0
  0
VERTEX
  8
LAYER1
 10
3.1806
 20
6.3173
 30
0
 70
     0
  0
SEQEND
  0
LINE
  8
LAYER1
  6
CONTINUOUS
 62
     7
 10
3.125
 20
6.3867
 30
0
 11
2.9722
 21
6.4006
 31
0
  0
POLYLINE
  8
LAYER1
  6
CONTINUOUS
 62
     7
 66
     1
 70
     0
 40
0.001
 41
0.001
  0
VERTEX
  8
LAYER1
 10
3.2778
 20
5.0117
 30
0
 70
     0
  0
VERTEX
  8
LAYER1
 10
3.2639
 20
5.0117
 30
0
 70
     0
  0
VERTEX
  8
LAYER1
 10
3.25
 20
5.0256
 30
0
 70
     0
  0
VERTEX
  8
LAYER1
 10
3.2361
 20
5.0395
 30
0
 70
     0
  0
VERTEX
  8
LAYER1
 10
3.2361
 20
5.0395
 30
0
 70
     0
  0
VERTEX
  8
LAYER1
 10
3.2222
 20
5.0673
 30
0
 70
     0
  0
VERTEX
  8
LAYER1
 10
3.2222
 20
5.0812
 30
0
 70
     0
  0
SEQEND
  0
LINE
  8
LAYER1
  6
CONTINUOUS
 62
     7
 10
3.2778
 20
5.0117
 30
0
 11
3.4167
 21
4.9978
 31
0
  0
LINE
  8
LAYER1
  6
CONTINUOUS
 62
     7
 10
3.2222
 20
6.3173
 30
0
 11
3.2222
 21
5.0812
 31
0
  0
POLYLINE
  8
LAYER1
  6
CONTINUOUS
 62
     7
 66
     1
 70
     0
 40
0.001
 41
0.001
  0
VERTEX
  8
LAYER1
 10
3.1806
 20
5.0812
 30
0
 70
     0
  0
VERTEX
  8
LAYER1
 10
3.1806
 20
5.0673
 30
0
 70
     0
  0
VERTEX
  8
LAYER1
 10
3.1806
 20
5.0534
 30
0
 70
     0
  0
VERTEX
  8
LAYER1
 10
3.1667
 20
5.0395
 30
0
 70
     0
  0
VERTEX
  8
LAYER1
 10
3.1528
 20
5.0256
 30
0
 70
     0
  0
VERTEX
  8
LAYER1
 10
3.1389
 20
5.0117
 30
0
 70
     0
  0
VERTEX
  8
LAYER1
 10
3.125
 20
5.0117
 30
0
 70
     0
  0
SEQEND
  0
LINE
  8
LAYER1
  6
CONTINUOUS
 62
     7
 10
3.125
 20
5.0117
 30
0
 11
2.9722
 21
4.9978
 31
0
  0
ENDBLK
  8
LAYER1
  0
BLOCK
  8
LAYER1
  2
Group14
 70
     0
 10
0
 20
0
 30
0
  0
LINE
  8
LAYER1
  6
CONTINUOUS
 62
     7
 10
3.1806
 20
6.3173
 30
0
 11
3.1806
 21
5.0812
 31
0
  0
LINE
  8
LAYER1
  6
CONTINUOUS
 62
     7
 10
3.3472
 20
4.9562
 30
0
 11
3.4028
 21
4.9978
 31
0
  0
LINE
  8
LAYER1
  6
CONTINUOUS
 62
     7
 10
3.2222
 20
4.9562
 30
0
 11
3.2778
 21
5.0117
 31
0
  0
LINE
  8
LAYER1
  6
CONTINUOUS
 62
     7
 10
3.0833
 20
4.9562
 30
0
 11
3.2222
 21
5.0812
 31
0
  0
LINE
  8
LAYER1
  6
CONTINUOUS
 62
     7
 10
2.9444
 20
4.9562
 30
0
 11
3
 21
4.9978
 31
0
  0
LINE
  8
LAYER1
  6
CONTINUOUS
 62
     7
 10
3.1806
 20
5.1784
 30
0
 11
3.2222
 21
5.2201
 31
0
  0
LINE
  8
LAYER1
  6
CONTINUOUS
 62
     7
 10
3.1806
 20
5.3173
 30
0
 11
3.2222
 21
5.3589
 31
0
  0
LINE
  8
LAYER1
  6
CONTINUOUS
 62
     7
 10
3.1806
 20
5.4423
 30
0
 11
3.2222
 21
5.4839
 31
0
  0
LINE
  8
LAYER1
  6
CONTINUOUS
 62
     7
 10
3.1806
 20
5.5812
 30
0
 11
3.2222
 21
5.6228
 31
0
  0
LINE
  8
LAYER1
  6
CONTINUOUS
 62
     7
 10
3.1806
 20
5.7201
 30
0
 11
3.2222
 21
5.7478
 31
0
  0
LINE
  8
LAYER1
  6
CONTINUOUS
 62
     7
 10
3.1806
 20
5.8451
 30
0
 11
3.2222
 21
5.8867
 31
0
  0
LINE
  8
LAYER1
  6
CONTINUOUS
 62
     7
 10
3.1806
 20
5.9839
 30
0
 11
3.2222
 21
6.0117
 31
0
  0
LINE
  8
LAYER1
  6
CONTINUOUS
 62
     7
 10
3.1806
 20
6.1089
 30
0
 11
3.2222
 21
6.1506
 31
0
  0
LINE
  8
LAYER1
  6
CONTINUOUS
 62
     7
 10
3.1806
 20
6.2478
 30
0
 11
3.2222
 21
6.2895
 31
0
  0
LINE
  8
LAYER1
  6
CONTINUOUS
 62
     7
 10
3.3333
 20
6.3867
 30
0
 11
3.3889
 21
6.4562
 31
0
  0
LINE
  8
LAYER1
  6
CONTINUOUS
 62
     7
 10
3.1667
 20
6.3589
 30
0
 11
3.25
 21
6.4562
 31
0
  0
LINE
  8
LAYER1
  6
CONTINUOUS
 62
     7
 10
3.0694
 20
6.4006
 30
0
 11
3.125
 21
6.4562
 31
0
  0
LINE
  8
LAYER1
  6
CONTINUOUS
 62
     7
 10
2.9583
 20
6.4145
 30
0
 11
2.9861
 21
6.4562
 31
0
  0
LINE
  8
LAYER1
  6
CONTINUOUS
 62
     7
 10
3.3889
 20
4.9562
 30
0
 11
3.4306
 21
4.9978
 31
0
  0
LINE
  8
LAYER1
  6
CONTINUOUS
 62
     7
 10
3.2639
 20
4.9562
 30
0
 11
3.3194
 21
5.0117
 31
0
  0
LINE
  8
LAYER1
  6
CONTINUOUS
 62
     7
 10
3.125
 20
4.9562
 30
0
 11
3.2222
 21
5.0534
 31
0
  0
LINE
  8
LAYER1
  6
CONTINUOUS
 62
     7
 10
3
 20
4.9562
 30
0
 11
3.0556
 21
5.0117
 31
0
  0
LINE
  8
LAYER1
  6
CONTINUOUS
 62
     7
 10
3.1806
 20
5.1367
 30
0
 11
3.2222
 21
5.1784
 31
0
  0
LINE
  8
LAYER1
  6
CONTINUOUS
 62
     7
 10
3.1806
 20
5.2756
 30
0
 11
3.2222
 21
5.3034
 31
0
  0
LINE
  8
LAYER1
  6
CONTINUOUS
 62
     7
 10
3.1806
 20
5.4006
 30
0
 11
3.2222
 21
5.4423
 31
0
  0
LINE
  8
LAYER1
  6
CONTINUOUS
 62
     7
 10
3.1806
 20
5.5395
 30
0
 11
3.2222
 21
5.5812
 31
0
  0
LINE
  8
LAYER1
  6
CONTINUOUS
 62
     7
 10
3.1806
 20
5.6645
 30
0
 11
3.2222
 21
5.7062
 31
0
  0
LINE
  8
LAYER1
  6
CONTINUOUS
 62
     7
 10
3.1806
 20
5.8034
 30
0
 11
3.2222
 21
5.8451
 31
0
  0
LINE
  8
LAYER1
  6
CONTINUOUS
 62
     7
 10
3.1806
 20
5.9284
 30
0
 11
3.2222
 21
5.9701
 31
0
  0
LINE
  8
LAYER1
  6
CONTINUOUS
 62
     7
 10
3.1806
 20
6.0673
 30
0
 11
3.2222
 21
6.1089
 31
0
  0
LINE
  8
LAYER1
  6
CONTINUOUS
 62
     7
 10
3.1806
 20
6.2062
 30
0
 11
3.2222
 21
6.2339
 31
0
  0
LINE
  8
LAYER1
  6
CONTINUOUS
 62
     7
 10
3.375
 20
6.4006
 30
0
 11
3.4306
 21
6.4562
 31
0
  0
LINE
  8
LAYER1
  6
CONTINUOUS
 62
     7
 10
3.1806
 20
6.3312
 30
0
 11
3.3056
 21
6.4562
 31
0
  0
LINE
  8
LAYER1
  6
CONTINUOUS
 62
     7
 10
3.1111
 20
6.3867
 30
0
 11
3.1667
 21
6.4562
 31
0
  0
ENDBLK
  8
LAYER1
  0
BLOCK
  8
LAYER1
  2
Group15
 70
     0
 10
0
 20
0
 30
0
  0
INSERT
  8
LAYER1
  2
Group13
 10
0
 20
0
 30
0
  0
INSERT
  8
LAYER1
  2
Group14
 10
0
 20
0
 30
0
  0
ENDBLK
  8
LAYER1
  0
BLOCK
  8
LAYER1
  2
Group16
 70
     0
 10
0
 20
0
 30
0
  0
LINE
  8
LAYER1
  6
CONTINUOUS
 62
     7
 10
2.9861
 20
6.4006
 30
0
 11
3.0278
 21
6.4562
 31
0
  0
LINE
  8
LAYER1
  6
CONTINUOUS
 62
     7
 10
2.9722
 20
3.6645
 30
0
 11
3.4306
 21
3.6645
 31
0
  0
LINE
  8
LAYER1
  6
CONTINUOUS
 62
     7
 10
2.9722
 20
2.4145
 30
0
 11
3.4306
 21
2.4145
 31
0
  0
POLYLINE
  8
LAYER1
  6
CONTINUOUS
 62
     7
 66
     1
 70
     0
 40
0.001
 41
0.001
  0
VERTEX
  8
LAYER1
 10
3.2222
 20
3.5395
 30
0
 70
     0
  0
VERTEX
  8
LAYER1
 10
3.2222
 20
3.5534
 30
0
 70
     0
  0
VERTEX
  8
LAYER1
 10
3.2361
 20
3.5812
 30
0
 70
     0
  0
VERTEX
  8
LAYER1
 10
3.2361
 20
3.5951
 30
0
 70
     0
  0
VERTEX
  8
LAYER1
 10
3.2361
 20
3.5951
 30
0
 70
     0
  0
VERTEX
  8
LAYER1
 10
3.2639
 20
3.6089
 30
0
 70
     0
  0
VERTEX
  8
LAYER1
 10
3.2778
 20
3.6089
 30
0
 70
     0
  0
SEQEND
  0
POLYLINE
  8
LAYER1
  6
CONTINUOUS
 62
     7
 66
     1
 70
     0
 40
0.001
 41
0.001
  0
VERTEX
  8
LAYER1
 10
3.125
 20
3.6089
 30
0
 70
     0
  0
VERTEX
  8
LAYER1
 10
3.1389
 20
3.6089
 30
0
 70
     0
  0
VERTEX
  8
LAYER1
 10
3.1528
 20
3.5951
 30
0
 70
     0
  0
VERTEX
  8
LAYER1
 10
3.1667
 20
3.5951
 30
0
 70
     0
  0
VERTEX
  8
LAYER1
 10
3.1806
 20
3.5812
 30
0
 70
     0
  0
VERTEX
  8
LAYER1
 10
3.1806
 20
3.5534
 30
0
 70
     0
  0
VERTEX
  8
LAYER1
 10
3.1806
 20
3.5395
 30
0
 70
     0
  0
SEQEND
  0
POLYLINE
  8
LAYER1
  6
CONTINUOUS
 62
     7
 66
     1
 70
     0
 40
0.001
 41
0.001
  0
VERTEX
  8
LAYER1
 10
3.1806
 20
2.5395
 30
0
 70
     0
  0
VERTEX
  8
LAYER1
 10
3.1806
 20
2.5256
 30
0
 70
     0
  0
VERTEX
  8
LAYER1
 10
3.1806
 20
2.5117
 30
0
 70
     0
  0
VERTEX
  8
LAYER1
 10
3.1667
 20
2.4978
 30
0
 70
     0
  0
VERTEX
  8
LAYER1
 10
3.1528
 20
2.4839
 30
0
 70
     0
  0
VERTEX
  8
LAYER1
 10
3.125
 20
2.4701
 30
0
 70
     0
  0
VERTEX
  8
LAYER1
 10
3.125
 20
2.4701
 30
0
 70
     0
  0
SEQEND
  0
LINE
  8
LAYER1
  6
CONTINUOUS
 62
     7
 10
3.1806
 20
3.5395
 30
0
 11
3.1806
 21
2.5395
 31
0
  0
POLYLINE
  8
LAYER1
  6
CONTINUOUS
 62
     7
 66
     1
 70
     0
 40
0.001
 41
0.001
  0
VERTEX
  8
LAYER1
 10
3.2778
 20
2.4701
 30
0
 70
     0
  0
VERTEX
  8
LAYER1
 10
3.2639
 20
2.4701
 30
0
 70
     0
  0
VERTEX
  8
LAYER1
 10
3.25
 20
2.4839
 30
0
 70
     0
  0
VERTEX
  8
LAYER1
 10
3.2361
 20
2.4978
 30
0
 70
     0
  0
VERTEX
  8
LAYER1
 10
3.2361
 20
2.4978
 30
0
 70
     0
  0
VERTEX
  8
LAYER1
 10
3.2222
 20
2.5256
 30
0
 70
     0
  0
VERTEX
  8
LAYER1
 10
3.2222
 20
2.5395
 30
0
 70
     0
  0
SEQEND
  0
LINE
  8
LAYER1
  6
CONTINUOUS
 62
     7
 10
3.2222
 20
3.5395
 30
0
 11
3.2222
 21
2.5395
 31
0
  0
POLYLINE
  8
LAYER1
  6
CONTINUOUS
 62
     7
 66
     1
 70
     0
 40
0.001
 41
0.001
  0
VERTEX
  8
LAYER1
 10
3
 20
3.6228
 30
0
 70
     0
  0
VERTEX
  8
LAYER1
 10
3
 20
3.6228
 30
0
 70
     0
  0
VERTEX
  8
LAYER1
 10
2.9861
 20
3.6228
 30
0
 70
     0
  0
VERTEX
  8
LAYER1
 10
2.9861
 20
3.6367
 30
0
 70
     0
  0
VERTEX
  8
LAYER1
 10
2.9861
 20
3.6367
 30
0
 70
     0
  0
VERTEX
  8
LAYER1
 10
2.9722
 20
3.6367
 30
0
 70
     0
  0
VERTEX
  8
LAYER1
 10
2.9722
 20
3.6506
 30
0
 70
     0
  0
SEQEND
  0
LINE
  8
LAYER1
  6
CONTINUOUS
 62
     7
 10
2.9722
 20
3.6645
 30
0
 11
2.9722
 21
3.6506
 31
0
  0
LINE
  8
LAYER1
  6
CONTINUOUS
 62
     7
 10
3.125
 20
3.6089
 30
0
 11
3
 21
3.6228
 31
0
  0
POLYLINE
  8
LAYER1
  6
CONTINUOUS
 62
     7
 66
     1
 70
     0
 40
0.001
 41
0.001
  0
VERTEX
  8
LAYER1
 10
3.4306
 20
3.6506
 30
0
 70
     0
  0
VERTEX
  8
LAYER1
 10
3.4306
 20
3.6367
 30
0
 70
     0
  0
VERTEX
  8
LAYER1
 10
3.4306
 20
3.6367
 30
0
 70
     0
  0
VERTEX
  8
LAYER1
 10
3.4167
 20
3.6367
 30
0
 70
     0
  0
VERTEX
  8
LAYER1
 10
3.4167
 20
3.6228
 30
0
 70
     0
  0
VERTEX
  8
LAYER1
 10
3.4167
 20
3.6228
 30
0
 70
     0
  0
VERTEX
  8
LAYER1
 10
3.4028
 20
3.6228
 30
0
 70
     0
  0
SEQEND
  0
LINE
  8
LAYER1
  6
CONTINUOUS
 62
     7
 10
3.4306
 20
3.6506
 30
0
 11
3.4306
 21
3.6645
 31
0
  0
LINE
  8
LAYER1
  6
CONTINUOUS
 62
     7
 10
3.2778
 20
3.6089
 30
0
 11
3.4028
 21
3.6228
 31
0
  0
POLYLINE
  8
LAYER1
  6
CONTINUOUS
 62
     7
 66
     1
 70
     0
 40
0.001
 41
0.001
  0
VERTEX
  8
LAYER1
 10
3.4028
 20
2.4701
 30
0
 70
     0
  0
VERTEX
  8
LAYER1
 10
3.4167
 20
2.4701
 30
0
 70
     0
  0
VERTEX
  8
LAYER1
 10
3.4167
 20
2.4562
 30
0
 70
     0
  0
VERTEX
  8
LAYER1
 10
3.4167
 20
2.4562
 30
0
 70
     0
  0
VERTEX
  8
LAYER1
 10
3.4306
 20
2.4423
 30
0
 70
     0
  0
VERTEX
  8
LAYER1
 10
3.4306
 20
2.4284
 30
0
 70
     0
  0
VERTEX
  8
LAYER1
 10
3.4306
 20
2.4284
 30
0
 70
     0
  0
SEQEND
  0
LINE
  8
LAYER1
  6
CONTINUOUS
 62
     7
 10
3.2778
 20
2.4701
 30
0
 11
3.4028
 21
2.4701
 31
0
  0
LINE
  8
LAYER1
  6
CONTINUOUS
 62
     7
 10
3.4306
 20
2.4145
 30
0
 11
3.4306
 21
2.4284
 31
0
  0
POLYLINE
  8
LAYER1
  6
CONTINUOUS
 62
     7
 66
     1
 70
     0
 40
0.001
 41
0.001
  0
VERTEX
  8
LAYER1
 10
2.9722
 20
2.4284
 30
0
 70
     0
  0
VERTEX
  8
LAYER1
 10
2.9722
 20
2.4284
 30
0
 70
     0
  0
VERTEX
  8
LAYER1
 10
2.9861
 20
2.4562
 30
0
 70
     0
  0
VERTEX
  8
LAYER1
 10
2.9861
 20
2.4562
 30
0
 70
     0
  0
VERTEX
  8
LAYER1
 10
2.9861
 20
2.4562
 30
0
 70
     0
  0
VERTEX
  8
LAYER1
 10
3
 20
2.4701
 30
0
 70
     0
  0
VERTEX
  8
LAYER1
 10
3
 20
2.4701
 30
0
 70
     0
  0
SEQEND
  0
LINE
  8
LAYER1
  6
CONTINUOUS
 62
     7
 10
3.125
 20
2.4701
 30
0
 11
3
 21
2.4701
 31
0
  0
ENDBLK
  8
LAYER1
  0
BLOCK
  8
LAYER1
  2
Group17
 70
     0
 10
0
 20
0
 30
0
  0
LINE
  8
LAYER1
  6
CONTINUOUS
 62
     7
 10
2.9722
 20
2.4284
 30
0
 11
2.9722
 21
2.4145
 31
0
  0
LINE
  8
LAYER1
  6
CONTINUOUS
 62
     7
 10
3.4306
 20
2.4145
 30
0
 11
3.4306
 21
2.4284
 31
0
  0
LINE
  8
LAYER1
  6
CONTINUOUS
 62
     7
 10
3.2917
 20
2.4145
 30
0
 11
3.3472
 21
2.4701
 31
0
  0
LINE
  8
LAYER1
  6
CONTINUOUS
 62
     7
 10
3.1528
 20
2.4145
 30
0
 11
3.2361
 21
2.4978
 31
0
  0
LINE
  8
LAYER1
  6
CONTINUOUS
 62
     7
 10
3.0278
 20
2.4145
 30
0
 11
3.0833
 21
2.4701
 31
0
  0
LINE
  8
LAYER1
  6
CONTINUOUS
 62
     7
 10
3.1806
 20
2.5812
 30
0
 11
3.2222
 21
2.6089
 31
0
  0
LINE
  8
LAYER1
  6
CONTINUOUS
 62
     7
 10
3.1806
 20
2.7062
 30
0
 11
3.2222
 21
2.7478
 31
0
  0
LINE
  8
LAYER1
  6
CONTINUOUS
 62
     7
 10
3.1806
 20
2.8451
 30
0
 11
3.2222
 21
2.8728
 31
0
  0
LINE
  8
LAYER1
  6
CONTINUOUS
 62
     7
 10
3.1806
 20
2.9701
 30
0
 11
3.2222
 21
3.0117
 31
0
  0
LINE
  8
LAYER1
  6
CONTINUOUS
 62
     7
 10
3.1806
 20
3.1089
 30
0
 11
3.2222
 21
3.1367
 31
0
  0
LINE
  8
LAYER1
  6
CONTINUOUS
 62
     7
 10
3.1806
 20
3.2339
 30
0
 11
3.2222
 21
3.2756
 31
0
  0
LINE
  8
LAYER1
  6
CONTINUOUS
 62
     7
 10
3.1806
 20
3.3728
 30
0
 11
3.2222
 21
3.4006
 31
0
  0
LINE
  8
LAYER1
  6
CONTINUOUS
 62
     7
 10
3.1806
 20
3.5117
 30
0
 11
3.2222
 21
3.5395
 31
0
  0
LINE
  8
LAYER1
  6
CONTINUOUS
 62
     7
 10
3.2917
 20
3.6089
 30
0
 11
3.3472
 21
3.6645
 31
0
  0
LINE
  8
LAYER1
  6
CONTINUOUS
 62
     7
 10
3.1528
 20
3.6089
 30
0
 11
3.2083
 21
3.6645
 31
0
  0
LINE
  8
LAYER1
  6
CONTINUOUS
 62
     7
 10
3.0278
 20
3.6228
 30
0
 11
3.0833
 21
3.6645
 31
0
  0
LINE
  8
LAYER1
  6
CONTINUOUS
 62
     7
 10
3.3333
 20
2.4145
 30
0
 11
3.3889
 21
2.4701
 31
0
  0
LINE
  8
LAYER1
  6
CONTINUOUS
 62
     7
 10
3.2083
 20
2.4145
 30
0
 11
3.2639
 21
2.4839
 31
0
  0
LINE
  8
LAYER1
  6
CONTINUOUS
 62
     7
 10
3.0694
 20
2.4145
 30
0
 11
3.125
 21
2.4701
 31
0
  0
LINE
  8
LAYER1
  6
CONTINUOUS
 62
     7
 10
3.1806
 20
2.5256
 30
0
 11
3.2222
 21
2.5673
 31
0
  0
LINE
  8
LAYER1
  6
CONTINUOUS
 62
     7
 10
3.1806
 20
2.6645
 30
0
 11
3.2222
 21
2.6923
 31
0
  0
LINE
  8
LAYER1
  6
CONTINUOUS
 62
     7
 10
3.1806
 20
2.8034
 30
0
 11
3.2222
 21
2.8312
 31
0
  0
LINE
  8
LAYER1
  6
CONTINUOUS
 62
     7
 10
3.1806
 20
2.9284
 30
0
 11
3.2222
 21
2.9701
 31
0
  0
LINE
  8
LAYER1
  6
CONTINUOUS
 62
     7
 10
3.1806
 20
3.0673
 30
0
 11
3.2222
 21
3.0951
 31
0
  0
LINE
  8
LAYER1
  6
CONTINUOUS
 62
     7
 10
3.1806
 20
3.1923
 30
0
 11
3.2222
 21
3.2339
 31
0
  0
LINE
  8
LAYER1
  6
CONTINUOUS
 62
     7
 10
3.1806
 20
3.3312
 30
0
 11
3.2222
 21
3.3589
 31
0
  0
LINE
  8
LAYER1
  6
CONTINUOUS
 62
     7
 10
3.1806
 20
3.4562
 30
0
 11
3.2222
 21
3.4978
 31
0
  0
LINE
  8
LAYER1
  6
CONTINUOUS
 62
     7
 10
3.3333
 20
3.6228
 30
0
 11
3.3889
 21
3.6645
 31
0
  0
LINE
  8
LAYER1
  6
CONTINUOUS
 62
     7
 10
3.1667
 20
3.5812
 30
0
 11
3.2639
 21
3.6645
 31
0
  0
LINE
  8
LAYER1
  6
CONTINUOUS
 62
     7
 10
3.0694
 20
3.6089
 30
0
 11
3.125
 21
3.6645
 31
0
  0
ENDBLK
  8
LAYER1
  0
BLOCK
  8
LAYER1
  2
Group18
 70
     0
 10
0
 20
0
 30
0
  0
INSERT
  8
LAYER1
  2
Group16
 10
0
 20
0
 30
0
  0
INSERT
  8
LAYER1
  2
Group17
 10
0
 20
0
 30
0
  0
ENDBLK
  8
LAYER1
  0
BLOCK
  8
LAYER1
  2
Group19
 70
     0
 10
0
 20
0
 30
0
  0
LINE
  8
LAYER1
  6
CONTINUOUS
 62
     7
 10
2.9722
 20
3.6506
 30
0
 11
2.9861
 21
3.6645
 31
0
  0
LINE
  8
LAYER1
  6
CONTINUOUS
 62
     7
 10
4.8333
 20
9.1645
 30
0
 11
5.2778
 21
9.1645
 31
0
  0
LINE
  8
LAYER1
  6
CONTINUOUS
 62
     7
 10
4.8333
 20
8.1645
 30
0
 11
5.2778
 21
8.1645
 31
0
  0
POLYLINE
  8
LAYER1
  6
CONTINUOUS
 62
     7
 66
     1
 70
     0
 40
0.001
 41
0.001
  0
VERTEX
  8
LAYER1
 10
4.9722
 20
9.1089
 30
0
 70
     0
  0
VERTEX
  8
LAYER1
 10
4.9861
 20
9.0951
 30
0
 70
     0
  0
VERTEX
  8
LAYER1
 10
5.0139
 20
9.0812
 30
0
 70
     0
  0
VERTEX
  8
LAYER1
 10
5.0139
 20
9.0812
 30
0
 70
     0
  0
VERTEX
  8
LAYER1
 10
5.0278
 20
9.0673
 30
0
 70
     0
  0
VERTEX
  8
LAYER1
 10
5.0417
 20
9.0534
 30
0
 70
     0
  0
VERTEX
  8
LAYER1
 10
5.0417
 20
9.0395
 30
0
 70
     0
  0
SEQEND
  0
POLYLINE
  8
LAYER1
  6
CONTINUOUS
 62
     7
 66
     1
 70
     0
 40
0.001
 41
0.001
  0
VERTEX
  8
LAYER1
 10
5.0694
 20
9.0395
 30
0
 70
     0
  0
VERTEX
  8
LAYER1
 10
5.0694
 20
9.0534
 30
0
 70
     0
  0
VERTEX
  8
LAYER1
 10
5.0833
 20
9.0673
 30
0
 70
     0
  0
VERTEX
  8
LAYER1
 10
5.0972
 20
9.0812
 30
0
 70
     0
  0
VERTEX
  8
LAYER1
 10
5.0972
 20
9.0812
 30
0
 70
     0
  0
VERTEX
  8
LAYER1
 10
5.1111
 20
9.0951
 30
0
 70
     0
  0
VERTEX
  8
LAYER1
 10
5.125
 20
9.1089
 30
0
 70
     0
  0
SEQEND
  0
POLYLINE
  8
LAYER1
  6
CONTINUOUS
 62
     7
 66
     1
 70
     0
 40
0.001
 41
0.001
  0
VERTEX
  8
LAYER1
 10
5.125
 20
8.2201
 30
0
 70
     0
  0
VERTEX
  8
LAYER1
 10
5.125
 20
8.2201
 30
0
 70
     0
  0
VERTEX
  8
LAYER1
 10
5.1111
 20
8.2201
 30
0
 70
     0
  0
VERTEX
  8
LAYER1
 10
5.0972
 20
8.2339
 30
0
 70
     0
  0
VERTEX
  8
LAYER1
 10
5.0833
 20
8.2339
 30
0
 70
     0
  0
VERTEX
  8
LAYER1
 10
5.0694
 20
8.2617
 30
0
 70
     0
  0
VERTEX
  8
LAYER1
 10
5.0694
 20
8.2756
 30
0
 70
     0
  0
SEQEND
  0
LINE
  8
LAYER1
  6
CONTINUOUS
 62
     7
 10
5.0694
 20
9.0395
 30
0
 11
5.0694
 21
8.2756
 31
0
  0
POLYLINE
  8
LAYER1
  6
CONTINUOUS
 62
     7
 66
     1
 70
     0
 40
0.001
 41
0.001
  0
VERTEX
  8
LAYER1
 10
5.0417
 20
8.2756
 30
0
 70
     0
  0
VERTEX
  8
LAYER1
 10
5.0417
 20
8.2617
 30
0
 70
     0
  0
VERTEX
  8
LAYER1
 10
5.0278
 20
8.2339
 30
0
 70
     0
  0
VERTEX
  8
LAYER1
 10
5.0139
 20
8.2339
 30
0
 70
     0
  0
VERTEX
  8
LAYER1
 10
5
 20
8.2201
 30
0
 70
     0
  0
VERTEX
  8
LAYER1
 10
4.9861
 20
8.2201
 30
0
 70
     0
  0
VERTEX
  8
LAYER1
 10
4.9722
 20
8.2201
 30
0
 70
     0
  0
SEQEND
  0
LINE
  8
LAYER1
  6
CONTINUOUS
 62
     7
 10
5.0417
 20
9.0395
 30
0
 11
5.0417
 21
8.2756
 31
0
  0
POLYLINE
  8
LAYER1
  6
CONTINUOUS
 62
     7
 66
     1
 70
     0
 40
0.001
 41
0.001
  0
VERTEX
  8
LAYER1
 10
4.8611
 20
9.1089
 30
0
 70
     0
  0
VERTEX
  8
LAYER1
 10
4.8611
 20
9.1089
 30
0
 70
     0
  0
VERTEX
  8
LAYER1
 10
4.8472
 20
9.1089
 30
0
 70
     0
  0
VERTEX
  8
LAYER1
 10
4.8472
 20
9.1228
 30
0
 70
     0
  0
VERTEX
  8
LAYER1
 10
4.8333
 20
9.1367
 30
0
 70
     0
  0
SEQEND
  0
LINE
  8
LAYER1
  6
CONTINUOUS
 62
     7
 10
4.9722
 20
9.1089
 30
0
 11
4.8611
 21
9.1089
 31
0
  0
LINE
  8
LAYER1
  6
CONTINUOUS
 62
     7
 10
4.8333
 20
9.1645
 30
0
 11
4.8333
 21
9.1367
 31
0
  0
POLYLINE
  8
LAYER1
  6
CONTINUOUS
 62
     7
 66
     1
 70
     0
 40
0.001
 41
0.001
  0
VERTEX
  8
LAYER1
 10
5.2778
 20
9.1367
 30
0
 70
     0
  0
VERTEX
  8
LAYER1
 10
5.2639
 20
9.1228
 30
0
 70
     0
  0
VERTEX
  8
LAYER1
 10
5.25
 20
9.1089
 30
0
 70
     0
  0
SEQEND
  0
LINE
  8
LAYER1
  6
CONTINUOUS
 62
     7
 10
5.2778
 20
9.1367
 30
0
 11
5.2778
 21
9.1645
 31
0
  0
LINE
  8
LAYER1
  6
CONTINUOUS
 62
     7
 10
5.125
 20
9.1089
 30
0
 11
5.25
 21
9.1089
 31
0
  0
POLYLINE
  8
LAYER1
  6
CONTINUOUS
 62
     7
 66
     1
 70
     0
 40
0.001
 41
0.001
  0
VERTEX
  8
LAYER1
 10
5.25
 20
8.2062
 30
0
 70
     0
  0
VERTEX
  8
LAYER1
 10
5.2639
 20
8.1923
 30
0
 70
     0
  0
VERTEX
  8
LAYER1
 10
5.2778
 20
8.1923
 30
0
 70
     0
  0
VERTEX
  8
LAYER1
 10
5.2778
 20
8.1784
 30
0
 70
     0
  0
VERTEX
  8
LAYER1
 10
5.2778
 20
8.1784
 30
0
 70
     0
  0
SEQEND
  0
LINE
  8
LAYER1
  6
CONTINUOUS
 62
     7
 10
5.125
 20
8.2201
 30
0
 11
5.25
 21
8.2062
 31
0
  0
LINE
  8
LAYER1
  6
CONTINUOUS
 62
     7
 10
5.2778
 20
8.1645
 30
0
 11
5.2778
 21
8.1784
 31
0
  0
POLYLINE
  8
LAYER1
  6
CONTINUOUS
 62
     7
 66
     1
 70
     0
 40
0.001
 41
0.001
  0
VERTEX
  8
LAYER1
 10
4.8333
 20
8.1784
 30
0
 70
     0
  0
VERTEX
  8
LAYER1
 10
4.8333
 20
8.1784
 30
0
 70
     0
  0
VERTEX
  8
LAYER1
 10
4.8472
 20
8.1923
 30
0
 70
     0
  0
VERTEX
  8
LAYER1
 10
4.8472
 20
8.1923
 30
0
 70
     0
  0
VERTEX
  8
LAYER1
 10
4.8472
 20
8.1923
 30
0
 70
     0
  0
VERTEX
  8
LAYER1
 10
4.8611
 20
8.2062
 30
0
 70
     0
  0
VERTEX
  8
LAYER1
 10
4.8611
 20
8.2062
 30
0
 70
     0
  0
SEQEND
  0
LINE
  8
LAYER1
  6
CONTINUOUS
 62
     7
 10
4.9722
 20
8.2201
 30
0
 11
4.8611
 21
8.2062
 31
0
  0
ENDBLK
  8
LAYER1
  0
BLOCK
  8
LAYER1
  2
Group20
 70
     0
 10
0
 20
0
 30
0
  0
LINE
  8
LAYER1
  6
CONTINUOUS
 62
     7
 10
4.8333
 20
8.1784
 30
0
 11
4.8333
 21
8.1645
 31
0
  0
LINE
  8
LAYER1
  6
CONTINUOUS
 62
     7
 10
5.1806
 20
8.1645
 30
0
 11
5.2222
 21
8.2062
 31
0
  0
LINE
  8
LAYER1
  6
CONTINUOUS
 62
     7
 10
5.0417
 20
8.1645
 30
0
 11
5.1111
 21
8.2201
 31
0
  0
LINE
  8
LAYER1
  6
CONTINUOUS
 62
     7
 10
4.9028
 20
8.1645
 30
0
 11
4.9583
 21
8.2201
 31
0
  0
LINE
  8
LAYER1
  6
CONTINUOUS
 62
     7
 10
5.0417
 20
8.2895
 30
0
 11
5.0694
 21
8.3312
 31
0
  0
LINE
  8
LAYER1
  6
CONTINUOUS
 62
     7
 10
5.0417
 20
8.4145
 30
0
 11
5.0694
 21
8.4562
 31
0
  0
LINE
  8
LAYER1
  6
CONTINUOUS
 62
     7
 10
5.0417
 20
8.5534
 30
0
 11
5.0694
 21
8.5951
 31
0
  0
LINE
  8
LAYER1
  6
CONTINUOUS
 62
     7
 10
5.0417
 20
8.6784
 30
0
 11
5.0694
 21
8.7201
 31
0
  0
LINE
  8
LAYER1
  6
CONTINUOUS
 62
     7
 10
5.0417
 20
8.8173
 30
0
 11
5.0694
 21
8.8589
 31
0
  0
LINE
  8
LAYER1
  6
CONTINUOUS
 62
     7
 10
5.0417
 20
8.9562
 30
0
 11
5.0694
 21
8.9839
 31
0
  0
LINE
  8
LAYER1
  6
CONTINUOUS
 62
     7
 10
5.1944
 20
9.1089
 30
0
 11
5.25
 21
9.1645
 31
0
  0
LINE
  8
LAYER1
  6
CONTINUOUS
 62
     7
 10
5.0278
 20
9.0673
 30
0
 11
5.1111
 21
9.1645
 31
0
  0
LINE
  8
LAYER1
  6
CONTINUOUS
 62
     7
 10
4.9306
 20
9.1089
 30
0
 11
4.9722
 21
9.1645
 31
0
  0
LINE
  8
LAYER1
  6
CONTINUOUS
 62
     7
 10
4.8333
 20
9.1506
 30
0
 11
4.8472
 21
9.1645
 31
0
  0
LINE
  8
LAYER1
  6
CONTINUOUS
 62
     7
 10
5.2222
 20
8.1645
 30
0
 11
5.2639
 21
8.2062
 31
0
  0
LINE
  8
LAYER1
  6
CONTINUOUS
 62
     7
 10
5.0833
 20
8.1645
 30
0
 11
5.1389
 21
8.2201
 31
0
  0
LINE
  8
LAYER1
  6
CONTINUOUS
 62
     7
 10
4.9583
 20
8.1645
 30
0
 11
5.0694
 21
8.2756
 31
0
  0
LINE
  8
LAYER1
  6
CONTINUOUS
 62
     7
 10
4.8333
 20
8.1784
 30
0
 11
4.8611
 21
8.2062
 31
0
  0
LINE
  8
LAYER1
  6
CONTINUOUS
 62
     7
 10
5.0417
 20
8.3728
 30
0
 11
5.0694
 21
8.4145
 31
0
  0
LINE
  8
LAYER1
  6
CONTINUOUS
 62
     7
 10
5.0417
 20
8.5117
 30
0
 11
5.0694
 21
8.5395
 31
0
  0
LINE
  8
LAYER1
  6
CONTINUOUS
 62
     7
 10
5.0417
 20
8.6367
 30
0
 11
5.0694
 21
8.6784
 31
0
  0
LINE
  8
LAYER1
  6
CONTINUOUS
 62
     7
 10
5.0417
 20
8.7756
 30
0
 11
5.0694
 21
8.8173
 31
0
  0
LINE
  8
LAYER1
  6
CONTINUOUS
 62
     7
 10
5.0417
 20
8.9006
 30
0
 11
5.0694
 21
8.9423
 31
0
  0
LINE
  8
LAYER1
  6
CONTINUOUS
 62
     7
 10
5.2361
 20
9.1089
 30
0
 11
5.2778
 21
9.1506
 31
0
  0
LINE
  8
LAYER1
  6
CONTINUOUS
 62
     7
 10
5.0417
 20
9.0395
 30
0
 11
5.1528
 21
9.1645
 31
0
  0
LINE
  8
LAYER1
  6
CONTINUOUS
 62
     7
 10
4.9722
 20
9.1089
 30
0
 11
5.0278
 21
9.1645
 31
0
  0
ENDBLK
  8
LAYER1
  0
BLOCK
  8
LAYER1
  2
Group21
 70
     0
 10
0
 20
0
 30
0
  0
INSERT
  8
LAYER1
  2
Group19
 10
0
 20
0
 30
0
  0
INSERT
  8
LAYER1
  2
Group20
 10
0
 20
0
 30
0
  0
ENDBLK
  8
LAYER1
  0
BLOCK
  8
LAYER1
  2
Group22
 70
     0
 10
0
 20
0
 30
0
  0
LINE
  8
LAYER1
  6
CONTINUOUS
 62
     7
 10
4.8472
 20
9.1228
 30
0
 11
4.8889
 21
9.1645
 31
0
  0
LINE
  8
LAYER1
  6
CONTINUOUS
 62
     7
 10
4.8472
 20
6.2062
 30
0
 11
5.2639
 21
6.2062
 31
0
  0
LINE
  8
LAYER1
  6
CONTINUOUS
 62
     7
 10
4.8472
 20
5.2062
 30
0
 11
5.2639
 21
5.2062
 31
0
  0
POLYLINE
  8
LAYER1
  6
CONTINUOUS
 62
     7
 66
     1
 70
     0
 40
0.001
 41
0.001
  0
VERTEX
  8
LAYER1
 10
4.9861
 20
6.1506
 30
0
 70
     0
  0
VERTEX
  8
LAYER1
 10
5
 20
6.1506
 30
0
 70
     0
  0
VERTEX
  8
LAYER1
 10
5.0278
 20
6.1367
 30
0
 70
     0
  0
VERTEX
  8
LAYER1
 10
5.0278
 20
6.1367
 30
0
 70
     0
  0
VERTEX
  8
LAYER1
 10
5.0417
 20
6.1228
 30
0
 70
     0
  0
VERTEX
  8
LAYER1
 10
5.0417
 20
6.1089
 30
0
 70
     0
  0
VERTEX
  8
LAYER1
 10
5.0417
 20
6.0951
 30
0
 70
     0
  0
SEQEND
  0
POLYLINE
  8
LAYER1
  6
CONTINUOUS
 62
     7
 66
     1
 70
     0
 40
0.001
 41
0.001
  0
VERTEX
  8
LAYER1
 10
5.0694
 20
6.0951
 30
0
 70
     0
  0
VERTEX
  8
LAYER1
 10
5.0694
 20
6.1089
 30
0
 70
     0
  0
VERTEX
  8
LAYER1
 10
5.0833
 20
6.1367
 30
0
 70
     0
  0
VERTEX
  8
LAYER1
 10
5.0833
 20
6.1367
 30
0
 70
     0
  0
VERTEX
  8
LAYER1
 10
5.0833
 20
6.1367
 30
0
 70
     0
  0
VERTEX
  8
LAYER1
 10
5.1111
 20
6.1506
 30
0
 70
     0
  0
VERTEX
  8
LAYER1
 10
5.1111
 20
6.1506
 30
0
 70
     0
  0
SEQEND
  0
POLYLINE
  8
LAYER1
  6
CONTINUOUS
 62
     7
 66
     1
 70
     0
 40
0.001
 41
0.001
  0
VERTEX
  8
LAYER1
 10
5.1111
 20
5.2478
 30
0
 70
     0
  0
VERTEX
  8
LAYER1
 10
5.1111
 20
5.2478
 30
0
 70
     0
  0
VERTEX
  8
LAYER1
 10
5.0972
 20
5.2478
 30
0
 70
     0
  0
VERTEX
  8
LAYER1
 10
5.0833
 20
5.2617
 30
0
 70
     0
  0
VERTEX
  8
LAYER1
 10
5.0833
 20
5.2617
 30
0
 70
     0
  0
VERTEX
  8
LAYER1
 10
5.0694
 20
5.2895
 30
0
 70
     0
  0
VERTEX
  8
LAYER1
 10
5.0694
 20
5.3034
 30
0
 70
     0
  0
SEQEND
  0
LINE
  8
LAYER1
  6
CONTINUOUS
 62
     7
 10
5.0694
 20
6.0951
 30
0
 11
5.0694
 21
5.3034
 31
0
  0
POLYLINE
  8
LAYER1
  6
CONTINUOUS
 62
     7
 66
     1
 70
     0
 40
0.001
 41
0.001
  0
VERTEX
  8
LAYER1
 10
5.0417
 20
5.3034
 30
0
 70
     0
  0
VERTEX
  8
LAYER1
 10
5.0417
 20
5.2895
 30
0
 70
     0
  0
VERTEX
  8
LAYER1
 10
5.0417
 20
5.2756
 30
0
 70
     0
  0
VERTEX
  8
LAYER1
 10
5.0278
 20
5.2617
 30
0
 70
     0
  0
VERTEX
  8
LAYER1
 10
5.0139
 20
5.2478
 30
0
 70
     0
  0
VERTEX
  8
LAYER1
 10
5
 20
5.2478
 30
0
 70
     0
  0
VERTEX
  8
LAYER1
 10
4.9861
 20
5.2478
 30
0
 70
     0
  0
SEQEND
  0
LINE
  8
LAYER1
  6
CONTINUOUS
 62
     7
 10
5.0417
 20
6.0951
 30
0
 11
5.0417
 21
5.3034
 31
0
  0
POLYLINE
  8
LAYER1
  6
CONTINUOUS
 62
     7
 66
     1
 70
     0
 40
0.001
 41
0.001
  0
VERTEX
  8
LAYER1
 10
5.2639
 20
6.1923
 30
0
 70
     0
  0
VERTEX
  8
LAYER1
 10
5.2639
 20
6.1784
 30
0
 70
     0
  0
VERTEX
  8
LAYER1
 10
5.2639
 20
6.1784
 30
0
 70
     0
  0
VERTEX
  8
LAYER1
 10
5.25
 20
6.1784
 30
0
 70
     0
  0
VERTEX
  8
LAYER1
 10
5.25
 20
6.1645
 30
0
 70
     0
  0
VERTEX
  8
LAYER1
 10
5.25
 20
6.1645
 30
0
 70
     0
  0
VERTEX
  8
LAYER1
 10
5.2361
 20
6.1645
 30
0
 70
     0
  0
SEQEND
  0
LINE
  8
LAYER1
  6
CONTINUOUS
 62
     7
 10
5.1111
 20
6.1506
 30
0
 11
5.2361
 21
6.1645
 31
0
  0
LINE
  8
LAYER1
  6
CONTINUOUS
 62
     7
 10
5.2639
 20
6.1923
 30
0
 11
5.2639
 21
6.2062
 31
0
  0
POLYLINE
  8
LAYER1
  6
CONTINUOUS
 62
     7
 66
     1
 70
     0
 40
0.001
 41
0.001
  0
VERTEX
  8
LAYER1
 10
4.875
 20
6.1645
 30
0
 70
     0
  0
VERTEX
  8
LAYER1
 10
4.875
 20
6.1645
 30
0
 70
     0
  0
VERTEX
  8
LAYER1
 10
4.8611
 20
6.1645
 30
0
 70
     0
  0
VERTEX
  8
LAYER1
 10
4.8611
 20
6.1784
 30
0
 70
     0
  0
VERTEX
  8
LAYER1
 10
4.8611
 20
6.1784
 30
0
 70
     0
  0
VERTEX
  8
LAYER1
 10
4.8472
 20
6.1784
 30
0
 70
     0
  0
VERTEX
  8
LAYER1
 10
4.8472
 20
6.1923
 30
0
 70
     0
  0
SEQEND
  0
LINE
  8
LAYER1
  6
CONTINUOUS
 62
     7
 10
4.8472
 20
6.2062
 30
0
 11
4.8472
 21
6.1923
 31
0
  0
LINE
  8
LAYER1
  6
CONTINUOUS
 62
     7
 10
4.9861
 20
6.1506
 30
0
 11
4.875
 21
6.1645
 31
0
  0
POLYLINE
  8
LAYER1
  6
CONTINUOUS
 62
     7
 66
     1
 70
     0
 40
0.001
 41
0.001
  0
VERTEX
  8
LAYER1
 10
4.8472
 20
5.2062
 30
0
 70
     0
  0
VERTEX
  8
LAYER1
 10
4.8472
 20
5.2062
 30
0
 70
     0
  0
VERTEX
  8
LAYER1
 10
4.8611
 20
5.2339
 30
0
 70
     0
  0
VERTEX
  8
LAYER1
 10
4.8611
 20
5.2339
 30
0
 70
     0
  0
VERTEX
  8
LAYER1
 10
4.875
 20
5.2339
 30
0
 70
     0
  0
SEQEND
  0
LINE
  8
LAYER1
  6
CONTINUOUS
 62
     7
 10
4.9861
 20
5.2478
 30
0
 11
4.875
 21
5.2339
 31
0
  0
POLYLINE
  8
LAYER1
  6
CONTINUOUS
 62
     7
 66
     1
 70
     0
 40
0.001
 41
0.001
  0
VERTEX
  8
LAYER1
 10
5.2361
 20
5.2339
 30
0
 70
     0
  0
VERTEX
  8
LAYER1
 10
5.25
 20
5.2339
 30
0
 70
     0
  0
VERTEX
  8
LAYER1
 10
5.2639
 20
5.2201
 30
0
 70
     0
  0
VERTEX
  8
LAYER1
 10
5.2639
 20
5.2062
 30
0
 70
     0
  0
VERTEX
  8
LAYER1
 10
5.2639
 20
5.2062
 30
0
 70
     0
  0
SEQEND
  0
ENDBLK
  8
LAYER1
  0
BLOCK
  8
LAYER1
  2
Group23
 70
     0
 10
0
 20
0
 30
0
  0
LINE
  8
LAYER1
  6
CONTINUOUS
 62
     7
 10
5.1111
 20
5.2478
 30
0
 11
5.2361
 21
5.2339
 31
0
  0
LINE
  8
LAYER1
  6
CONTINUOUS
 62
     7
 10
5.1528
 20
5.2062
 30
0
 11
5.1944
 21
5.2478
 31
0
  0
LINE
  8
LAYER1
  6
CONTINUOUS
 62
     7
 10
5.0278
 20
5.2062
 30
0
 11
5.0833
 21
5.2617
 31
0
  0
LINE
  8
LAYER1
  6
CONTINUOUS
 62
     7
 10
4.8889
 20
5.2062
 30
0
 11
4.9306
 21
5.2478
 31
0
  0
LINE
  8
LAYER1
  6
CONTINUOUS
 62
     7
 10
5.0417
 20
5.3451
 30
0
 11
5.0694
 21
5.3728
 31
0
  0
LINE
  8
LAYER1
  6
CONTINUOUS
 62
     7
 10
5.0417
 20
5.4839
 30
0
 11
5.0694
 21
5.5117
 31
0
  0
LINE
  8
LAYER1
  6
CONTINUOUS
 62
     7
 10
5.0417
 20
5.6089
 30
0
 11
5.0694
 21
5.6367
 31
0
  0
LINE
  8
LAYER1
  6
CONTINUOUS
 62
     7
 10
5.0417
 20
5.7478
 30
0
 11
5.0694
 21
5.7756
 31
0
  0
LINE
  8
LAYER1
  6
CONTINUOUS
 62
     7
 10
5.0417
 20
5.8728
 30
0
 11
5.0694
 21
5.9145
 31
0
  0
LINE
  8
LAYER1
  6
CONTINUOUS
 62
     7
 10
5.0417
 20
6.0117
 30
0
 11
5.0694
 21
6.0395
 31
0
  0
LINE
  8
LAYER1
  6
CONTINUOUS
 62
     7
 10
5.1806
 20
6.1645
 30
0
 11
5.2222
 21
6.2062
 31
0
  0
LINE
  8
LAYER1
  6
CONTINUOUS
 62
     7
 10
5.0278
 20
6.1367
 30
0
 11
5.0972
 21
6.2062
 31
0
  0
LINE
  8
LAYER1
  6
CONTINUOUS
 62
     7
 10
4.9167
 20
6.1645
 30
0
 11
4.9583
 21
6.2062
 31
0
  0
LINE
  8
LAYER1
  6
CONTINUOUS
 62
     7
 10
5.2083
 20
5.2062
 30
0
 11
5.2361
 21
5.2339
 31
0
  0
LINE
  8
LAYER1
  6
CONTINUOUS
 62
     7
 10
5.0694
 20
5.2062
 30
0
 11
5.1111
 21
5.2478
 31
0
  0
LINE
  8
LAYER1
  6
CONTINUOUS
 62
     7
 10
4.9306
 20
5.2062
 30
0
 11
4.9861
 21
5.2478
 31
0
  0
LINE
  8
LAYER1
  6
CONTINUOUS
 62
     7
 10
5.0417
 20
5.3034
 30
0
 11
5.0694
 21
5.3312
 31
0
  0
LINE
  8
LAYER1
  6
CONTINUOUS
 62
     7
 10
5.0417
 20
5.4423
 30
0
 11
5.0694
 21
5.4701
 31
0
  0
LINE
  8
LAYER1
  6
CONTINUOUS
 62
     7
 10
5.0417
 20
5.5673
 30
0
 11
5.0694
 21
5.5951
 31
0
  0
LINE
  8
LAYER1
  6
CONTINUOUS
 62
     7
 10
5.0417
 20
5.7062
 30
0
 11
5.0694
 21
5.7339
 31
0
  0
LINE
  8
LAYER1
  6
CONTINUOUS
 62
     7
 10
5.0417
 20
5.8312
 30
0
 11
5.0694
 21
5.8589
 31
0
  0
LINE
  8
LAYER1
  6
CONTINUOUS
 62
     7
 10
5.0417
 20
5.9701
 30
0
 11
5.0694
 21
5.9978
 31
0
  0
LINE
  8
LAYER1
  6
CONTINUOUS
 62
     7
 10
5.2361
 20
6.1645
 30
0
 11
5.2639
 21
6.1923
 31
0
  0
LINE
  8
LAYER1
  6
CONTINUOUS
 62
     7
 10
5.0417
 20
6.0951
 30
0
 11
5.1389
 21
6.2062
 31
0
  0
LINE
  8
LAYER1
  6
CONTINUOUS
 62
     7
 10
4.9583
 20
6.1506
 30
0
 11
5.0139
 21
6.2062
 31
0
  0
ENDBLK
  8
LAYER1
  0
BLOCK
  8
LAYER1
  2
Group24
 70
     0
 10
0
 20
0
 30
0
  0
INSERT
  8
LAYER1
  2
Group22
 10
0
 20
0
 30
0
  0
INSERT
  8
LAYER1
  2
Group23
 10
0
 20
0
 30
0
  0
ENDBLK
  8
LAYER1
  0
BLOCK
  8
LAYER1
  2
Group25
 70
     0
 10
0
 20
0
 30
0
  0
LINE
  8
LAYER1
  6
CONTINUOUS
 62
     7
 10
4.8472
 20
6.1784
 30
0
 11
4.875
 21
6.2062
 31
0
  0
LINE
  8
LAYER1
  6
CONTINUOUS
 62
     7
 10
4.8611
 20
3.4562
 30
0
 11
5.25
 21
3.4562
 31
0
  0
LINE
  8
LAYER1
  6
CONTINUOUS
 62
     7
 10
4.8611
 20
2.6228
 30
0
 11
5.25
 21
2.6228
 31
0
  0
POLYLINE
  8
LAYER1
  6
CONTINUOUS
 62
     7
 66
     1
 70
     0
 40
0.001
 41
0.001
  0
VERTEX
  8
LAYER1
 10
5
 20
3.4145
 30
0
 70
     0
  0
VERTEX
  8
LAYER1
 10
5.0139
 20
3.4145
 30
0
 70
     0
  0
VERTEX
  8
LAYER1
 10
5.0278
 20
3.4006
 30
0
 70
     0
  0
VERTEX
  8
LAYER1
 10
5.0278
 20
3.4006
 30
0
 70
     0
  0
VERTEX
  8
LAYER1
 10
5.0417
 20
3.3867
 30
0
 70
     0
  0
VERTEX
  8
LAYER1
 10
5.0417
 20
3.3728
 30
0
 70
     0
  0
VERTEX
  8
LAYER1
 10
5.0417
 20
3.3589
 30
0
 70
     0
  0
SEQEND
  0
POLYLINE
  8
LAYER1
  6
CONTINUOUS
 62
     7
 66
     1
 70
     0
 40
0.001
 41
0.001
  0
VERTEX
  8
LAYER1
 10
5.0694
 20
3.3589
 30
0
 70
     0
  0
VERTEX
  8
LAYER1
 10
5.0694
 20
3.3728
 30
0
 70
     0
  0
VERTEX
  8
LAYER1
 10
5.0833
 20
3.4006
 30
0
 70
     0
  0
VERTEX
  8
LAYER1
 10
5.0833
 20
3.4006
 30
0
 70
     0
  0
VERTEX
  8
LAYER1
 10
5.0833
 20
3.4006
 30
0
 70
     0
  0
VERTEX
  8
LAYER1
 10
5.1111
 20
3.4145
 30
0
 70
     0
  0
VERTEX
  8
LAYER1
 10
5.1111
 20
3.4145
 30
0
 70
     0
  0
SEQEND
  0
POLYLINE
  8
LAYER1
  6
CONTINUOUS
 62
     7
 66
     1
 70
     0
 40
0.001
 41
0.001
  0
VERTEX
  8
LAYER1
 10
5.1111
 20
2.6784
 30
0
 70
     0
  0
VERTEX
  8
LAYER1
 10
5.1111
 20
2.6784
 30
0
 70
     0
  0
VERTEX
  8
LAYER1
 10
5.0972
 20
2.6784
 30
0
 70
     0
  0
VERTEX
  8
LAYER1
 10
5.0833
 20
2.6923
 30
0
 70
     0
  0
VERTEX
  8
LAYER1
 10
5.0833
 20
2.6923
 30
0
 70
     0
  0
VERTEX
  8
LAYER1
 10
5.0694
 20
2.7062
 30
0
 70
     0
  0
VERTEX
  8
LAYER1
 10
5.0694
 20
2.7201
 30
0
 70
     0
  0
SEQEND
  0
LINE
  8
LAYER1
  6
CONTINUOUS
 62
     7
 10
5.0694
 20
3.3589
 30
0
 11
5.0694
 21
2.7201
 31
0
  0
POLYLINE
  8
LAYER1
  6
CONTINUOUS
 62
     7
 66
     1
 70
     0
 40
0.001
 41
0.001
  0
VERTEX
  8
LAYER1
 10
5.0417
 20
2.7201
 30
0
 70
     0
  0
VERTEX
  8
LAYER1
 10
5.0417
 20
2.7062
 30
0
 70
     0
  0
VERTEX
  8
LAYER1
 10
5.0417
 20
2.7062
 30
0
 70
     0
  0
VERTEX
  8
LAYER1
 10
5.0278
 20
2.6923
 30
0
 70
     0
  0
VERTEX
  8
LAYER1
 10
5.0139
 20
2.6784
 30
0
 70
     0
  0
VERTEX
  8
LAYER1
 10
5.0139
 20
2.6784
 30
0
 70
     0
  0
VERTEX
  8
LAYER1
 10
5
 20
2.6784
 30
0
 70
     0
  0
SEQEND
  0
LINE
  8
LAYER1
  6
CONTINUOUS
 62
     7
 10
5.0417
 20
3.3589
 30
0
 11
5.0417
 21
2.7201
 31
0
  0
POLYLINE
  8
LAYER1
  6
CONTINUOUS
 62
     7
 66
     1
 70
     0
 40
0.001
 41
0.001
  0
VERTEX
  8
LAYER1
 10
4.8865
 20
3.4146
 30
0
 70
     0
  0
VERTEX
  8
LAYER1
 10
4.8684
 20
3.4235
 30
0
 70
     0
  0
VERTEX
  8
LAYER1
 10
4.8611
 20
3.4423
 30
0
 70
     0
  0
SEQEND
  0
LINE
  8
LAYER1
  6
CONTINUOUS
 62
     7
 10
5
 20
3.4145
 30
0
 11
4.875
 21
3.4284
 31
0
  0
LINE
  8
LAYER1
  6
CONTINUOUS
 62
     7
 10
4.8611
 20
3.4562
 30
0
 11
4.8611
 21
3.4423
 31
0
  0
POLYLINE
  8
LAYER1
  6
CONTINUOUS
 62
     7
 66
     1
 70
     0
 40
0.001
 41
0.001
  0
VERTEX
  8
LAYER1
 10
5.25
 20
3.4423
 30
0
 70
     0
  0
VERTEX
  8
LAYER1
 10
5.25
 20
3.4284
 30
0
 70
     0
  0
VERTEX
  8
LAYER1
 10
5.25
 20
3.4284
 30
0
 70
     0
  0
VERTEX
  8
LAYER1
 10
5.2361
 20
3.4284
 30
0
 70
     0
  0
VERTEX
  8
LAYER1
 10
5.2361
 20
3.4284
 30
0
 70
     0
  0
SEQEND
  0
LINE
  8
LAYER1
  6
CONTINUOUS
 62
     7
 10
5.1111
 20
3.4145
 30
0
 11
5.2361
 21
3.4284
 31
0
  0
LINE
  8
LAYER1
  6
CONTINUOUS
 62
     7
 10
5.25
 20
3.4423
 30
0
 11
5.25
 21
3.4562
 31
0
  0
POLYLINE
  8
LAYER1
  6
CONTINUOUS
 62
     7
 66
     1
 70
     0
 40
0.001
 41
0.001
  0
VERTEX
  8
LAYER1
 10
5.2361
 20
2.6645
 30
0
 70
     0
  0
VERTEX
  8
LAYER1
 10
5.2361
 20
2.6645
 30
0
 70
     0
  0
VERTEX
  8
LAYER1
 10
5.25
 20
2.6506
 30
0
 70
     0
  0
SEQEND
  0
LINE
  8
LAYER1
  6
CONTINUOUS
 62
     7
 10
5.1111
 20
2.6784
 30
0
 11
5.2361
 21
2.6645
 31
0
  0
LINE
  8
LAYER1
  6
CONTINUOUS
 62
     7
 10
5.25
 20
2.6228
 30
0
 11
5.25
 21
2.6506
 31
0
  0
POLYLINE
  8
LAYER1
  6
CONTINUOUS
 62
     7
 66
     1
 70
     0
 40
0.001
 41
0.001
  0
VERTEX
  8
LAYER1
 10
4.8611
 20
2.6506
 30
0
 70
     0
  0
VERTEX
  8
LAYER1
 10
4.8611
 20
2.6645
 30
0
 70
     0
  0
VERTEX
  8
LAYER1
 10
4.875
 20
2.6645
 30
0
 70
     0
  0
SEQEND
  0
LINE
  8
LAYER1
  6
CONTINUOUS
 62
     7
 10
5
 20
2.6784
 30
0
 11
4.875
 21
2.6645
 31
0
  0
ENDBLK
  8
LAYER1
  0
BLOCK
  8
LAYER1
  2
Group26
 70
     0
 10
0
 20
0
 30
0
  0
LINE
  8
LAYER1
  6
CONTINUOUS
 62
     7
 10
4.8611
 20
2.6506
 30
0
 11
4.8611
 21
2.6228
 31
0
  0
LINE
  8
LAYER1
  6
CONTINUOUS
 62
     7
 10
5.2083
 20
2.6228
 30
0
 11
5.2361
 21
2.6645
 31
0
  0
LINE
  8
LAYER1
  6
CONTINUOUS
 62
     7
 10
5.0833
 20
2.6228
 30
0
 11
5.125
 21
2.6784
 31
0
  0
LINE
  8
LAYER1
  6
CONTINUOUS
 62
     7
 10
4.9444
 20
2.6228
 30
0
 11
5
 21
2.6784
 31
0
  0
LINE
  8
LAYER1
  6
CONTINUOUS
 62
     7
 10
5.0417
 20
2.7201
 30
0
 11
5.0694
 21
2.7478
 31
0
  0
LINE
  8
LAYER1
  6
CONTINUOUS
 62
     7
 10
5.0417
 20
2.8589
 30
0
 11
5.0694
 21
2.8867
 31
0
  0
LINE
  8
LAYER1
  6
CONTINUOUS
 62
     7
 10
5.0417
 20
2.9839
 30
0
 11
5.0694
 21
3.0117
 31
0
  0
LINE
  8
LAYER1
  6
CONTINUOUS
 62
     7
 10
5.0417
 20
3.1228
 30
0
 11
5.0694
 21
3.1506
 31
0
  0
LINE
  8
LAYER1
  6
CONTINUOUS
 62
     7
 10
5.0417
 20
3.2478
 30
0
 11
5.0694
 21
3.2756
 31
0
  0
LINE
  8
LAYER1
  6
CONTINUOUS
 62
     7
 10
5.2083
 20
3.4145
 30
0
 11
5.25
 21
3.4562
 31
0
  0
LINE
  8
LAYER1
  6
CONTINUOUS
 62
     7
 10
5.0417
 20
3.3867
 30
0
 11
5.1111
 21
3.4562
 31
0
  0
LINE
  8
LAYER1
  6
CONTINUOUS
 62
     7
 10
4.9444
 20
3.4145
 30
0
 11
4.9861
 21
3.4562
 31
0
  0
LINE
  8
LAYER1
  6
CONTINUOUS
 62
     7
 10
5.125
 20
2.6228
 30
0
 11
5.1667
 21
2.6645
 31
0
  0
LINE
  8
LAYER1
  6
CONTINUOUS
 62
     7
 10
4.9861
 20
2.6228
 30
0
 11
5.0694
 21
2.7062
 31
0
  0
LINE
  8
LAYER1
  6
CONTINUOUS
 62
     7
 10
4.8611
 20
2.6228
 30
0
 11
4.9028
 21
2.6645
 31
0
  0
LINE
  8
LAYER1
  6
CONTINUOUS
 62
     7
 10
5.0417
 20
2.8173
 30
0
 11
5.0694
 21
2.8312
 31
0
  0
LINE
  8
LAYER1
  6
CONTINUOUS
 62
     7
 10
5.0417
 20
2.9423
 30
0
 11
5.0694
 21
2.9701
 31
0
  0
LINE
  8
LAYER1
  6
CONTINUOUS
 62
     7
 10
5.0417
 20
3.0812
 30
0
 11
5.0694
 21
3.1089
 31
0
  0
LINE
  8
LAYER1
  6
CONTINUOUS
 62
     7
 10
5.0417
 20
3.2062
 30
0
 11
5.0694
 21
3.2339
 31
0
  0
LINE
  8
LAYER1
  6
CONTINUOUS
 62
     7
 10
5.0417
 20
3.3451
 30
0
 11
5.0694
 21
3.3728
 31
0
  0
LINE
  8
LAYER1
  6
CONTINUOUS
 62
     7
 10
5.1111
 20
3.4145
 30
0
 11
5.1528
 21
3.4562
 31
0
  0
LINE
  8
LAYER1
  6
CONTINUOUS
 62
     7
 10
4.9861
 20
3.4145
 30
0
 11
5.0278
 21
3.4562
 31
0
  0
ENDBLK
  8
LAYER1
  0
BLOCK
  8
LAYER1
  2
Group27
 70
     0
 10
0
 20
0
 30
0
  0
INSERT
  8
LAYER1
  2
Group25
 10
0
 20
0
 30
0
  0
INSERT
  8
LAYER1
  2
Group26
 10
0
 20
0
 30
0
  0
ENDBLK
  8
LAYER1
  0
BLOCK
  8
LAYER1
  2
Group28
 70
     0
 10
0
 20
0
 30
0
  0
LINE
  8
LAYER1
  6
CONTINUOUS
 62
     7
 10
4.8611
 20
3.4284
 30
0
 11
4.8889
 21
3.4562
 31
0
  0
LINE
  8
LAYER1
  6
CONTINUOUS
 62
     7
 10
10.4306
 20
9.3451
 30
0
 11
10.7639
 21
9.3451
 31
0
  0
LINE
  8
LAYER1
  6
CONTINUOUS
 62
     7
 10
10.4306
 20
8.6784
 30
0
 11
10.7639
 21
8.6784
 31
0
  0
POLYLINE
  8
LAYER1
  6
CONTINUOUS
 62
     7
 66
     1
 70
     0
 40
0.001
 41
0.001
  0
VERTEX
  8
LAYER1
 10
10.6111
 20
9.2478
 30
0
 70
     0
  0
VERTEX
  8
LAYER1
 10
10.6111
 20
9.2617
 30
0
 70
     0
  0
VERTEX
  8
LAYER1
 10
10.625
 20
9.2895
 30
0
 70
     0
  0
VERTEX
  8
LAYER1
 10
10.625
 20
9.2895
 30
0
 70
     0
  0
VERTEX
  8
LAYER1
 10
10.625
 20
9.2895
 30
0
 70
     0
  0
VERTEX
  8
LAYER1
 10
10.6528
 20
9.3034
 30
0
 70
     0
  0
VERTEX
  8
LAYER1
 10
10.6528
 20
9.3034
 30
0
 70
     0
  0
SEQEND
  0
POLYLINE
  8
LAYER1
  6
CONTINUOUS
 62
     7
 66
     1
 70
     0
 40
0.001
 41
0.001
  0
VERTEX
  8
LAYER1
 10
10.5417
 20
9.3034
 30
0
 70
     0
  0
VERTEX
  8
LAYER1
 10
10.5556
 20
9.3034
 30
0
 70
     0
  0
VERTEX
  8
LAYER1
 10
10.5694
 20
9.2895
 30
0
 70
     0
  0
VERTEX
  8
LAYER1
 10
10.5694
 20
9.2895
 30
0
 70
     0
  0
VERTEX
  8
LAYER1
 10
10.5833
 20
9.2756
 30
0
 70
     0
  0
VERTEX
  8
LAYER1
 10
10.5833
 20
9.2617
 30
0
 70
     0
  0
VERTEX
  8
LAYER1
 10
10.5833
 20
9.2478
 30
0
 70
     0
  0
SEQEND
  0
POLYLINE
  8
LAYER1
  6
CONTINUOUS
 62
     7
 66
     1
 70
     0
 40
0.001
 41
0.001
  0
VERTEX
  8
LAYER1
 10
10.6528
 20
8.7201
 30
0
 70
     0
  0
VERTEX
  8
LAYER1
 10
10.6528
 20
8.7201
 30
0
 70
     0
  0
VERTEX
  8
LAYER1
 10
10.6389
 20
8.7201
 30
0
 70
     0
  0
VERTEX
  8
LAYER1
 10
10.625
 20
8.7339
 30
0
 70
     0
  0
VERTEX
  8
LAYER1
 10
10.625
 20
8.7339
 30
0
 70
     0
  0
VERTEX
  8
LAYER1
 10
10.6111
 20
8.7478
 30
0
 70
     0
  0
VERTEX
  8
LAYER1
 10
10.6111
 20
8.7617
 30
0
 70
     0
  0
SEQEND
  0
LINE
  8
LAYER1
  6
CONTINUOUS
 62
     7
 10
10.6111
 20
9.2478
 30
0
 11
10.6111
 21
8.7617
 31
0
  0
POLYLINE
  8
LAYER1
  6
CONTINUOUS
 62
     7
 66
     1
 70
     0
 40
0.001
 41
0.001
  0
VERTEX
  8
LAYER1
 10
10.5833
 20
8.7617
 30
0
 70
     0
  0
VERTEX
  8
LAYER1
 10
10.5833
 20
8.7478
 30
0
 70
     0
  0
VERTEX
  8
LAYER1
 10
10.5833
 20
8.7478
 30
0
 70
     0
  0
VERTEX
  8
LAYER1
 10
10.5694
 20
8.7339
 30
0
 70
     0
  0
VERTEX
  8
LAYER1
 10
10.5556
 20
8.7201
 30
0
 70
     0
  0
VERTEX
  8
LAYER1
 10
10.5556
 20
8.7201
 30
0
 70
     0
  0
VERTEX
  8
LAYER1
 10
10.5417
 20
8.7201
 30
0
 70
     0
  0
SEQEND
  0
LINE
  8
LAYER1
  6
CONTINUOUS
 62
     7
 10
10.5833
 20
9.2478
 30
0
 11
10.5833
 21
8.7617
 31
0
  0
POLYLINE
  8
LAYER1
  6
CONTINUOUS
 62
     7
 66
     1
 70
     0
 40
0.001
 41
0.001
  0
VERTEX
  8
LAYER1
 10
10.4583
 20
9.3034
 30
0
 70
     0
  0
VERTEX
  8
LAYER1
 10
10.4583
 20
9.3034
 30
0
 70
     0
  0
VERTEX
  8
LAYER1
 10
10.4444
 20
9.3034
 30
0
 70
     0
  0
VERTEX
  8
LAYER1
 10
10.4444
 20
9.3173
 30
0
 70
     0
  0
VERTEX
  8
LAYER1
 10
10.4444
 20
9.3173
 30
0
 70
     0
  0
VERTEX
  8
LAYER1
 10
10.4306
 20
9.3312
 30
0
 70
     0
  0
VERTEX
  8
LAYER1
 10
10.4306
 20
9.3451
 30
0
 70
     0
  0
SEQEND
  0
LINE
  8
LAYER1
  6
CONTINUOUS
 62
     7
 10
10.5417
 20
9.3034
 30
0
 11
10.4583
 21
9.3034
 31
0
  0
POLYLINE
  8
LAYER1
  6
CONTINUOUS
 62
     7
 66
     1
 70
     0
 40
0.001
 41
0.001
  0
VERTEX
  8
LAYER1
 10
10.7639
 20
9.3451
 30
0
 70
     0
  0
VERTEX
  8
LAYER1
 10
10.7639
 20
9.3312
 30
0
 70
     0
  0
VERTEX
  8
LAYER1
 10
10.7639
 20
9.3312
 30
0
 70
     0
  0
VERTEX
  8
LAYER1
 10
10.75
 20
9.3173
 30
0
 70
     0
  0
VERTEX
  8
LAYER1
 10
10.75
 20
9.3034
 30
0
 70
     0
  0
VERTEX
  8
LAYER1
 10
10.75
 20
9.3034
 30
0
 70
     0
  0
VERTEX
  8
LAYER1
 10
10.7361
 20
9.3034
 30
0
 70
     0
  0
SEQEND
  0
LINE
  8
LAYER1
  6
CONTINUOUS
 62
     7
 10
10.6528
 20
9.3034
 30
0
 11
10.7361
 21
9.3034
 31
0
  0
POLYLINE
  8
LAYER1
  6
CONTINUOUS
 62
     7
 66
     1
 70
     0
 40
0.001
 41
0.001
  0
VERTEX
  8
LAYER1
 10
10.7361
 20
8.7062
 30
0
 70
     0
  0
VERTEX
  8
LAYER1
 10
10.75
 20
8.7062
 30
0
 70
     0
  0
VERTEX
  8
LAYER1
 10
10.7639
 20
8.6923
 30
0
 70
     0
  0
VERTEX
  8
LAYER1
 10
10.7639
 20
8.6784
 30
0
 70
     0
  0
VERTEX
  8
LAYER1
 10
10.7639
 20
8.6784
 30
0
 70
     0
  0
SEQEND
  0
LINE
  8
LAYER1
  6
CONTINUOUS
 62
     7
 10
10.6528
 20
8.7201
 30
0
 11
10.7361
 21
8.7062
 31
0
  0
POLYLINE
  8
LAYER1
  6
CONTINUOUS
 62
     7
 66
     1
 70
     0
 40
0.001
 41
0.001
  0
VERTEX
  8
LAYER1
 10
10.4306
 20
8.6784
 30
0
 70
     0
  0
VERTEX
  8
LAYER1
 10
10.4306
 20
8.6784
 30
0
 70
     0
  0
VERTEX
  8
LAYER1
 10
10.4444
 20
8.7062
 30
0
 70
     0
  0
VERTEX
  8
LAYER1
 10
10.4444
 20
8.7062
 30
0
 70
     0
  0
VERTEX
  8
LAYER1
 10
10.4583
 20
8.7062
 30
0
 70
     0
  0
SEQEND
  0
ENDBLK
  8
LAYER1
  0
BLOCK
  8
LAYER1
  2
Group29
 70
     0
 10
0
 20
0
 30
0
  0
LINE
  8
LAYER1
  6
CONTINUOUS
 62
     7
 10
10.5417
 20
8.7201
 30
0
 11
10.4583
 21
8.7062
 31
0
  0
LINE
  8
LAYER1
  6
CONTINUOUS
 62
     7
 10
10.6528
 20
8.6784
 30
0
 11
10.6944
 21
8.7201
 31
0
  0
LINE
  8
LAYER1
  6
CONTINUOUS
 62
     7
 10
10.5278
 20
8.6784
 30
0
 11
10.6111
 21
8.7617
 31
0
  0
LINE
  8
LAYER1
  6
CONTINUOUS
 62
     7
 10
10.5833
 20
8.8728
 30
0
 11
10.6111
 21
8.9006
 31
0
  0
LINE
  8
LAYER1
  6
CONTINUOUS
 62
     7
 10
10.5833
 20
8.9978
 30
0
 11
10.6111
 21
9.0256
 31
0
  0
LINE
  8
LAYER1
  6
CONTINUOUS
 62
     7
 10
10.5833
 20
9.1367
 30
0
 11
10.6111
 21
9.1645
 31
0
  0
LINE
  8
LAYER1
  6
CONTINUOUS
 62
     7
 10
10.5833
 20
9.2617
 30
0
 11
10.6667
 21
9.3451
 31
0
  0
LINE
  8
LAYER1
  6
CONTINUOUS
 62
     7
 10
10.4861
 20
9.3034
 30
0
 11
10.5278
 21
9.3451
 31
0
  0
LINE
  8
LAYER1
  6
CONTINUOUS
 62
     7
 10
10.7083
 20
8.6784
 30
0
 11
10.7361
 21
8.7062
 31
0
  0
LINE
  8
LAYER1
  6
CONTINUOUS
 62
     7
 10
10.5694
 20
8.6784
 30
0
 11
10.625
 21
8.7339
 31
0
  0
LINE
  8
LAYER1
  6
CONTINUOUS
 62
     7
 10
10.4306
 20
8.6784
 30
0
 11
10.4722
 21
8.7201
 31
0
  0
LINE
  8
LAYER1
  6
CONTINUOUS
 62
     7
 10
10.5833
 20
8.8312
 30
0
 11
10.6111
 21
8.8451
 31
0
  0
LINE
  8
LAYER1
  6
CONTINUOUS
 62
     7
 10
10.5833
 20
8.9562
 30
0
 11
10.6111
 21
8.9839
 31
0
  0
LINE
  8
LAYER1
  6
CONTINUOUS
 62
     7
 10
10.5833
 20
9.0951
 30
0
 11
10.6111
 21
9.1089
 31
0
  0
LINE
  8
LAYER1
  6
CONTINUOUS
 62
     7
 10
10.5833
 20
9.2201
 30
0
 11
10.6111
 21
9.2478
 31
0
  0
LINE
  8
LAYER1
  6
CONTINUOUS
 62
     7
 10
10.6667
 20
9.3034
 30
0
 11
10.7083
 21
9.3451
 31
0
  0
LINE
  8
LAYER1
  6
CONTINUOUS
 62
     7
 10
10.5278
 20
9.3034
 30
0
 11
10.5694
 21
9.3451
 31
0
  0
ENDBLK
  8
LAYER1
  0
BLOCK
  8
LAYER1
  2
Group30
 70
     0
 10
0
 20
0
 30
0
  0
INSERT
  8
LAYER1
  2
Group28
 10
0
 20
0
 30
0
  0
INSERT
  8
LAYER1
  2
Group29
 10
0
 20
0
 30
0
  0
ENDBLK
  8
LAYER1
  0
BLOCK
  8
LAYER1
  2
Group31
 70
     0
 10
0
 20
0
 30
0
  0
LINE
  8
LAYER1
  6
CONTINUOUS
 62
     7
 10
10.4306
 20
9.3312
 30
0
 11
10.4444
 21
9.3451
 31
0
  0
LINE
  8
LAYER1
  6
CONTINUOUS
 62
     7
 10
10.4444
 20
6.3451
 30
0
 11
10.75
 21
6.3451
 31
0
  0
LINE
  8
LAYER1
  6
CONTINUOUS
 62
     7
 10
10.4444
 20
5.7617
 30
0
 11
10.75
 21
5.7617
 31
0
  0
POLYLINE
  8
LAYER1
  6
CONTINUOUS
 62
     7
 66
     1
 70
     0
 40
0.001
 41
0.001
  0
VERTEX
  8
LAYER1
 10
10.5417
 20
6.3034
 30
0
 70
     0
  0
VERTEX
  8
LAYER1
 10
10.5556
 20
6.3034
 30
0
 70
     0
  0
VERTEX
  8
LAYER1
 10
10.5694
 20
6.2895
 30
0
 70
     0
  0
VERTEX
  8
LAYER1
 10
10.5694
 20
6.2895
 30
0
 70
     0
  0
VERTEX
  8
LAYER1
 10
10.5833
 20
6.2756
 30
0
 70
     0
  0
VERTEX
  8
LAYER1
 10
10.5833
 20
6.2617
 30
0
 70
     0
  0
VERTEX
  8
LAYER1
 10
10.5833
 20
6.2478
 30
0
 70
     0
  0
SEQEND
  0
POLYLINE
  8
LAYER1
  6
CONTINUOUS
 62
     7
 66
     1
 70
     0
 40
0.001
 41
0.001
  0
VERTEX
  8
LAYER1
 10
10.6111
 20
6.2478
 30
0
 70
     0
  0
VERTEX
  8
LAYER1
 10
10.6111
 20
6.2617
 30
0
 70
     0
  0
VERTEX
  8
LAYER1
 10
10.625
 20
6.2895
 30
0
 70
     0
  0
VERTEX
  8
LAYER1
 10
10.625
 20
6.2895
 30
0
 70
     0
  0
VERTEX
  8
LAYER1
 10
10.625
 20
6.2895
 30
0
 70
     0
  0
VERTEX
  8
LAYER1
 10
10.6528
 20
6.3034
 30
0
 70
     0
  0
VERTEX
  8
LAYER1
 10
10.6528
 20
6.3034
 30
0
 70
     0
  0
SEQEND
  0
POLYLINE
  8
LAYER1
  6
CONTINUOUS
 62
     7
 66
     1
 70
     0
 40
0.001
 41
0.001
  0
VERTEX
  8
LAYER1
 10
10.6528
 20
5.8034
 30
0
 70
     0
  0
VERTEX
  8
LAYER1
 10
10.6528
 20
5.8034
 30
0
 70
     0
  0
VERTEX
  8
LAYER1
 10
10.6389
 20
5.8034
 30
0
 70
     0
  0
VERTEX
  8
LAYER1
 10
10.625
 20
5.8173
 30
0
 70
     0
  0
VERTEX
  8
LAYER1
 10
10.625
 20
5.8173
 30
0
 70
     0
  0
VERTEX
  8
LAYER1
 10
10.6111
 20
5.8312
 30
0
 70
     0
  0
VERTEX
  8
LAYER1
 10
10.6111
 20
5.8451
 30
0
 70
     0
  0
SEQEND
  0
LINE
  8
LAYER1
  6
CONTINUOUS
 62
     7
 10
10.6111
 20
6.2478
 30
0
 11
10.6111
 21
5.8451
 31
0
  0
POLYLINE
  8
LAYER1
  6
CONTINUOUS
 62
     7
 66
     1
 70
     0
 40
0.001
 41
0.001
  0
VERTEX
  8
LAYER1
 10
10.5833
 20
5.8451
 30
0
 70
     0
  0
VERTEX
  8
LAYER1
 10
10.5833
 20
5.8312
 30
0
 70
     0
  0
VERTEX
  8
LAYER1
 10
10.5833
 20
5.8312
 30
0
 70
     0
  0
VERTEX
  8
LAYER1
 10
10.5694
 20
5.8173
 30
0
 70
     0
  0
VERTEX
  8
LAYER1
 10
10.5556
 20
5.8034
 30
0
 70
     0
  0
VERTEX
  8
LAYER1
 10
10.5556
 20
5.8034
 30
0
 70
     0
  0
VERTEX
  8
LAYER1
 10
10.5417
 20
5.8034
 30
0
 70
     0
  0
SEQEND
  0
LINE
  8
LAYER1
  6
CONTINUOUS
 62
     7
 10
10.5833
 20
6.2478
 30
0
 11
10.5833
 21
5.8451
 31
0
  0
POLYLINE
  8
LAYER1
  6
CONTINUOUS
 62
     7
 66
     1
 70
     0
 40
0.001
 41
0.001
  0
VERTEX
  8
LAYER1
 10
10.4722
 20
6.3034
 30
0
 70
     0
  0
VERTEX
  8
LAYER1
 10
10.4722
 20
6.3034
 30
0
 70
     0
  0
VERTEX
  8
LAYER1
 10
10.4583
 20
6.3034
 30
0
 70
     0
  0
VERTEX
  8
LAYER1
 10
10.4583
 20
6.3173
 30
0
 70
     0
  0
VERTEX
  8
LAYER1
 10
10.4444
 20
6.3312
 30
0
 70
     0
  0
SEQEND
  0
LINE
  8
LAYER1
  6
CONTINUOUS
 62
     7
 10
10.5417
 20
6.3034
 30
0
 11
10.4722
 21
6.3034
 31
0
  0
LINE
  8
LAYER1
  6
CONTINUOUS
 62
     7
 10
10.4444
 20
6.3451
 30
0
 11
10.4444
 21
6.3312
 31
0
  0
POLYLINE
  8
LAYER1
  6
CONTINUOUS
 62
     7
 66
     1
 70
     0
 40
0.001
 41
0.001
  0
VERTEX
  8
LAYER1
 10
10.75
 20
6.3312
 30
0
 70
     0
  0
VERTEX
  8
LAYER1
 10
10.7361
 20
6.3173
 30
0
 70
     0
  0
VERTEX
  8
LAYER1
 10
10.7361
 20
6.3034
 30
0
 70
     0
  0
VERTEX
  8
LAYER1
 10
10.7361
 20
6.3034
 30
0
 70
     0
  0
VERTEX
  8
LAYER1
 10
10.7222
 20
6.3034
 30
0
 70
     0
  0
SEQEND
  0
LINE
  8
LAYER1
  6
CONTINUOUS
 62
     7
 10
10.75
 20
6.3312
 30
0
 11
10.75
 21
6.3451
 31
0
  0
LINE
  8
LAYER1
  6
CONTINUOUS
 62
     7
 10
10.6528
 20
6.3034
 30
0
 11
10.7222
 21
6.3034
 31
0
  0
POLYLINE
  8
LAYER1
  6
CONTINUOUS
 62
     7
 66
     1
 70
     0
 40
0.001
 41
0.001
  0
VERTEX
  8
LAYER1
 10
10.7222
 20
5.8034
 30
0
 70
     0
  0
VERTEX
  8
LAYER1
 10
10.7361
 20
5.7895
 30
0
 70
     0
  0
VERTEX
  8
LAYER1
 10
10.75
 20
5.7756
 30
0
 70
     0
  0
VERTEX
  8
LAYER1
 10
10.75
 20
5.7617
 30
0
 70
     0
  0
VERTEX
  8
LAYER1
 10
10.75
 20
5.7617
 30
0
 70
     0
  0
SEQEND
  0
LINE
  8
LAYER1
  6
CONTINUOUS
 62
     7
 10
10.6528
 20
5.8034
 30
0
 11
10.7222
 21
5.8034
 31
0
  0
POLYLINE
  8
LAYER1
  6
CONTINUOUS
 62
     7
 66
     1
 70
     0
 40
0.001
 41
0.001
  0
VERTEX
  8
LAYER1
 10
10.4444
 20
5.7617
 30
0
 70
     0
  0
VERTEX
  8
LAYER1
 10
10.4444
 20
5.7617
 30
0
 70
     0
  0
VERTEX
  8
LAYER1
 10
10.4583
 20
5.7895
 30
0
 70
     0
  0
VERTEX
  8
LAYER1
 10
10.4583
 20
5.7895
 30
0
 70
     0
  0
VERTEX
  8
LAYER1
 10
10.4722
 20
5.8034
 30
0
 70
     0
  0
SEQEND
  0
ENDBLK
  8
LAYER1
  0
BLOCK
  8
LAYER1
  2
Group32
 70
     0
 10
0
 20
0
 30
0
  0
LINE
  8
LAYER1
  6
CONTINUOUS
 62
     7
 10
10.5417
 20
5.8034
 30
0
 11
10.4722
 21
5.8034
 31
0
  0
LINE
  8
LAYER1
  6
CONTINUOUS
 62
     7
 10
10.6111
 20
5.7617
 30
0
 11
10.6528
 21
5.8034
 31
0
  0
LINE
  8
LAYER1
  6
CONTINUOUS
 62
     7
 10
10.4861
 20
5.7617
 30
0
 11
10.5278
 21
5.8034
 31
0
  0
LINE
  8
LAYER1
  6
CONTINUOUS
 62
     7
 10
10.5833
 20
5.8728
 30
0
 11
10.6111
 21
5.8867
 31
0
  0
LINE
  8
LAYER1
  6
CONTINUOUS
 62
     7
 10
10.5833
 20
5.9978
 30
0
 11
10.6111
 21
6.0256
 31
0
  0
LINE
  8
LAYER1
  6
CONTINUOUS
 62
     7
 10
10.5833
 20
6.1367
 30
0
 11
10.6111
 21
6.1506
 31
0
  0
LINE
  8
LAYER1
  6
CONTINUOUS
 62
     7
 10
10.5833
 20
6.2617
 30
0
 11
10.6667
 21
6.3451
 31
0
  0
LINE
  8
LAYER1
  6
CONTINUOUS
 62
     7
 10
10.5
 20
6.3034
 30
0
 11
10.5278
 21
6.3451
 31
0
  0
LINE
  8
LAYER1
  6
CONTINUOUS
 62
     7
 10
10.6528
 20
5.7617
 30
0
 11
10.6944
 21
5.8034
 31
0
  0
LINE
  8
LAYER1
  6
CONTINUOUS
 62
     7
 10
10.5278
 20
5.7617
 30
0
 11
10.6111
 21
5.8451
 31
0
  0
LINE
  8
LAYER1
  6
CONTINUOUS
 62
     7
 10
10.5833
 20
5.9562
 30
0
 11
10.6111
 21
5.9701
 31
0
  0
LINE
  8
LAYER1
  6
CONTINUOUS
 62
     7
 10
10.5833
 20
6.0812
 30
0
 11
10.6111
 21
6.1089
 31
0
  0
LINE
  8
LAYER1
  6
CONTINUOUS
 62
     7
 10
10.5833
 20
6.2201
 30
0
 11
10.6111
 21
6.2478
 31
0
  0
LINE
  8
LAYER1
  6
CONTINUOUS
 62
     7
 10
10.6667
 20
6.3034
 30
0
 11
10.7083
 21
6.3451
 31
0
  0
ENDBLK
  8
LAYER1
  0
BLOCK
  8
LAYER1
  2
Group33
 70
     0
 10
0
 20
0
 30
0
  0
INSERT
  8
LAYER1
  2
Group31
 10
0
 20
0
 30
0
  0
INSERT
  8
LAYER1
  2
Group32
 10
0
 20
0
 30
0
  0
ENDBLK
  8
LAYER1
  0
BLOCK
  8
LAYER1
  2
Group34
 70
     0
 10
0
 20
0
 30
0
  0
LINE
  8
LAYER1
  6
CONTINUOUS
 62
     7
 10
10.5417
 20
6.3034
 30
0
 11
10.5833
 21
6.3451
 31
0
  0
LINE
  8
LAYER1
  6
CONTINUOUS
 62
     7
 10
10.4583
 20
3.6367
 30
0
 11
10.7361
 21
3.6367
 31
0
  0
LINE
  8
LAYER1
  6
CONTINUOUS
 62
     7
 10
10.4583
 20
3.1367
 30
0
 11
10.7361
 21
3.1367
 31
0
  0
POLYLINE
  8
LAYER1
  6
CONTINUOUS
 62
     7
 66
     1
 70
     0
 40
0.001
 41
0.001
  0
VERTEX
  8
LAYER1
 10
10.5556
 20
3.6089
 30
0
 70
     0
  0
VERTEX
  8
LAYER1
 10
10.5694
 20
3.6089
 30
0
 70
     0
  0
VERTEX
  8
LAYER1
 10
10.5833
 20
3.5951
 30
0
 70
     0
  0
VERTEX
  8
LAYER1
 10
10.5833
 20
3.5951
 30
0
 70
     0
  0
VERTEX
  8
LAYER1
 10
10.5833
 20
3.5812
 30
0
 70
     0
  0
VERTEX
  8
LAYER1
 10
10.5833
 20
3.5673
 30
0
 70
     0
  0
VERTEX
  8
LAYER1
 10
10.5833
 20
3.5673
 30
0
 70
     0
  0
SEQEND
  0
POLYLINE
  8
LAYER1
  6
CONTINUOUS
 62
     7
 66
     1
 70
     0
 40
0.001
 41
0.001
  0
VERTEX
  8
LAYER1
 10
10.6111
 20
3.5673
 30
0
 70
     0
  0
VERTEX
  8
LAYER1
 10
10.6111
 20
3.5673
 30
0
 70
     0
  0
VERTEX
  8
LAYER1
 10
10.625
 20
3.5951
 30
0
 70
     0
  0
VERTEX
  8
LAYER1
 10
10.625
 20
3.5951
 30
0
 70
     0
  0
VERTEX
  8
LAYER1
 10
10.625
 20
3.5951
 30
0
 70
     0
  0
VERTEX
  8
LAYER1
 10
10.6389
 20
3.6089
 30
0
 70
     0
  0
VERTEX
  8
LAYER1
 10
10.6528
 20
3.6089
 30
0
 70
     0
  0
SEQEND
  0
POLYLINE
  8
LAYER1
  6
CONTINUOUS
 62
     7
 66
     1
 70
     0
 40
0.001
 41
0.001
  0
VERTEX
  8
LAYER1
 10
10.6528
 20
3.1784
 30
0
 70
     0
  0
VERTEX
  8
LAYER1
 10
10.6389
 20
3.1784
 30
0
 70
     0
  0
VERTEX
  8
LAYER1
 10
10.625
 20
3.1784
 30
0
 70
     0
  0
VERTEX
  8
LAYER1
 10
10.625
 20
3.1923
 30
0
 70
     0
  0
VERTEX
  8
LAYER1
 10
10.625
 20
3.1923
 30
0
 70
     0
  0
VERTEX
  8
LAYER1
 10
10.6111
 20
3.2062
 30
0
 70
     0
  0
VERTEX
  8
LAYER1
 10
10.6111
 20
3.2201
 30
0
 70
     0
  0
SEQEND
  0
LINE
  8
LAYER1
  6
CONTINUOUS
 62
     7
 10
10.6111
 20
3.5673
 30
0
 11
10.6111
 21
3.2201
 31
0
  0
POLYLINE
  8
LAYER1
  6
CONTINUOUS
 62
     7
 66
     1
 70
     0
 40
0.001
 41
0.001
  0
VERTEX
  8
LAYER1
 10
10.5833
 20
3.2201
 30
0
 70
     0
  0
VERTEX
  8
LAYER1
 10
10.5833
 20
3.2062
 30
0
 70
     0
  0
VERTEX
  8
LAYER1
 10
10.5833
 20
3.1923
 30
0
 70
     0
  0
VERTEX
  8
LAYER1
 10
10.5833
 20
3.1923
 30
0
 70
     0
  0
VERTEX
  8
LAYER1
 10
10.5694
 20
3.1784
 30
0
 70
     0
  0
VERTEX
  8
LAYER1
 10
10.5694
 20
3.1784
 30
0
 70
     0
  0
VERTEX
  8
LAYER1
 10
10.5556
 20
3.1784
 30
0
 70
     0
  0
SEQEND
  0
LINE
  8
LAYER1
  6
CONTINUOUS
 62
     7
 10
10.5833
 20
3.5673
 30
0
 11
10.5833
 21
3.2201
 31
0
  0
POLYLINE
  8
LAYER1
  6
CONTINUOUS
 62
     7
 66
     1
 70
     0
 40
0.001
 41
0.001
  0
VERTEX
  8
LAYER1
 10
10.4861
 20
3.6089
 30
0
 70
     0
  0
VERTEX
  8
LAYER1
 10
10.4861
 20
3.6089
 30
0
 70
     0
  0
VERTEX
  8
LAYER1
 10
10.4722
 20
3.6089
 30
0
 70
     0
  0
VERTEX
  8
LAYER1
 10
10.4722
 20
3.6228
 30
0
 70
     0
  0
VERTEX
  8
LAYER1
 10
10.4722
 20
3.6228
 30
0
 70
     0
  0
VERTEX
  8
LAYER1
 10
10.4583
 20
3.6228
 30
0
 70
     0
  0
VERTEX
  8
LAYER1
 10
10.4583
 20
3.6367
 30
0
 70
     0
  0
SEQEND
  0
LINE
  8
LAYER1
  6
CONTINUOUS
 62
     7
 10
10.5556
 20
3.6089
 30
0
 11
10.4861
 21
3.6089
 31
0
  0
POLYLINE
  8
LAYER1
  6
CONTINUOUS
 62
     7
 66
     1
 70
     0
 40
0.001
 41
0.001
  0
VERTEX
  8
LAYER1
 10
10.7361
 20
3.6367
 30
0
 70
     0
  0
VERTEX
  8
LAYER1
 10
10.7361
 20
3.6228
 30
0
 70
     0
  0
VERTEX
  8
LAYER1
 10
10.7361
 20
3.6228
 30
0
 70
     0
  0
VERTEX
  8
LAYER1
 10
10.7222
 20
3.6228
 30
0
 70
     0
  0
VERTEX
  8
LAYER1
 10
10.7222
 20
3.6089
 30
0
 70
     0
  0
VERTEX
  8
LAYER1
 10
10.7222
 20
3.6089
 30
0
 70
     0
  0
VERTEX
  8
LAYER1
 10
10.7083
 20
3.6089
 30
0
 70
     0
  0
SEQEND
  0
LINE
  8
LAYER1
  6
CONTINUOUS
 62
     7
 10
10.6528
 20
3.6089
 30
0
 11
10.7083
 21
3.6089
 31
0
  0
POLYLINE
  8
LAYER1
  6
CONTINUOUS
 62
     7
 66
     1
 70
     0
 40
0.001
 41
0.001
  0
VERTEX
  8
LAYER1
 10
10.7083
 20
3.1784
 30
0
 70
     0
  0
VERTEX
  8
LAYER1
 10
10.7222
 20
3.1784
 30
0
 70
     0
  0
VERTEX
  8
LAYER1
 10
10.7222
 20
3.1645
 30
0
 70
     0
  0
VERTEX
  8
LAYER1
 10
10.7222
 20
3.1645
 30
0
 70
     0
  0
VERTEX
  8
LAYER1
 10
10.7361
 20
3.1645
 30
0
 70
     0
  0
VERTEX
  8
LAYER1
 10
10.7361
 20
3.1506
 30
0
 70
     0
  0
VERTEX
  8
LAYER1
 10
10.7361
 20
3.1506
 30
0
 70
     0
  0
SEQEND
  0
LINE
  8
LAYER1
  6
CONTINUOUS
 62
     7
 10
10.6528
 20
3.1784
 30
0
 11
10.7083
 21
3.1784
 31
0
  0
LINE
  8
LAYER1
  6
CONTINUOUS
 62
     7
 10
10.7361
 20
3.1367
 30
0
 11
10.7361
 21
3.1506
 31
0
  0
POLYLINE
  8
LAYER1
  6
CONTINUOUS
 62
     7
 66
     1
 70
     0
 40
0.001
 41
0.001
  0
VERTEX
  8
LAYER1
 10
10.4583
 20
3.1506
 30
0
 70
     0
  0
VERTEX
  8
LAYER1
 10
10.4583
 20
3.1506
 30
0
 70
     0
  0
VERTEX
  8
LAYER1
 10
10.4722
 20
3.1645
 30
0
 70
     0
  0
VERTEX
  8
LAYER1
 10
10.4722
 20
3.1645
 30
0
 70
     0
  0
VERTEX
  8
LAYER1
 10
10.4722
 20
3.1645
 30
0
 70
     0
  0
VERTEX
  8
LAYER1
 10
10.4861
 20
3.1784
 30
0
 70
     0
  0
VERTEX
  8
LAYER1
 10
10.4861
 20
3.1784
 30
0
 70
     0
  0
SEQEND
  0
LINE
  8
LAYER1
  6
CONTINUOUS
 62
     7
 10
10.5556
 20
3.1784
 30
0
 11
10.4861
 21
3.1784
 31
0
  0
ENDBLK
  8
LAYER1
  0
BLOCK
  8
LAYER1
  2
Group35
 70
     0
 10
0
 20
0
 30
0
  0
LINE
  8
LAYER1
  6
CONTINUOUS
 62
     7
 10
10.4583
 20
3.1506
 30
0
 11
10.4583
 21
3.1367
 31
0
  0
LINE
  8
LAYER1
  6
CONTINUOUS
 62
     7
 10
10.7222
 20
3.1367
 30
0
 11
10.7361
 21
3.1506
 31
0
  0
LINE
  8
LAYER1
  6
CONTINUOUS
 62
     7
 10
10.5972
 20
3.1367
 30
0
 11
10.6389
 21
3.1784
 31
0
  0
LINE
  8
LAYER1
  6
CONTINUOUS
 62
     7
 10
10.4583
 20
3.1506
 30
0
 11
10.4861
 21
3.1784
 31
0
  0
LINE
  8
LAYER1
  6
CONTINUOUS
 62
     7
 10
10.5833
 20
3.2756
 30
0
 11
10.6111
 21
3.2895
 31
0
  0
LINE
  8
LAYER1
  6
CONTINUOUS
 62
     7
 10
10.5833
 20
3.4006
 30
0
 11
10.6111
 21
3.4284
 31
0
  0
LINE
  8
LAYER1
  6
CONTINUOUS
 62
     7
 10
10.5833
 20
3.5395
 30
0
 11
10.6111
 21
3.5534
 31
0
  0
LINE
  8
LAYER1
  6
CONTINUOUS
 62
     7
 10
10.6528
 20
3.6089
 30
0
 11
10.6944
 21
3.6367
 31
0
  0
LINE
  8
LAYER1
  6
CONTINUOUS
 62
     7
 10
10.5278
 20
3.6089
 30
0
 11
10.5556
 21
3.6367
 31
0
  0
LINE
  8
LAYER1
  6
CONTINUOUS
 62
     7
 10
10.6389
 20
3.1367
 30
0
 11
10.6667
 21
3.1784
 31
0
  0
LINE
  8
LAYER1
  6
CONTINUOUS
 62
     7
 10
10.5
 20
3.1367
 30
0
 11
10.5417
 21
3.1784
 31
0
  0
LINE
  8
LAYER1
  6
CONTINUOUS
 62
     7
 10
10.5833
 20
3.2339
 30
0
 11
10.6111
 21
3.2478
 31
0
  0
LINE
  8
LAYER1
  6
CONTINUOUS
 62
     7
 10
10.5833
 20
3.3589
 30
0
 11
10.6111
 21
3.3867
 31
0
  0
LINE
  8
LAYER1
  6
CONTINUOUS
 62
     7
 10
10.5833
 20
3.4978
 30
0
 11
10.6111
 21
3.5117
 31
0
  0
LINE
  8
LAYER1
  6
CONTINUOUS
 62
     7
 10
10.7083
 20
3.6089
 30
0
 11
10.7361
 21
3.6367
 31
0
  0
LINE
  8
LAYER1
  6
CONTINUOUS
 62
     7
 10
10.5694
 20
3.6089
 30
0
 11
10.6111
 21
3.6367
 31
0
  0
ENDBLK
  8
LAYER1
  0
BLOCK
  8
LAYER1
  2
Group36
 70
     0
 10
0
 20
0
 30
0
  0
INSERT
  8
LAYER1
  2
Group34
 10
0
 20
0
 30
0
  0
INSERT
  8
LAYER1
  2
Group35
 10
0
 20
0
 30
0
  0
ENDBLK
  8
LAYER1
  0
BLOCK
  8
LAYER1
  2
Group37
 70
     0
 10
0
 20
0
 30
0
  0
LINE
  8
LAYER1
  6
CONTINUOUS
 62
     7
 10
10.4583
 20
3.6367
 30
0
 11
10.4722
 21
3.6367
 31
0
  0
LINE
  8
LAYER1
  6
CONTINUOUS
 62
     7
 10
12.2917
 20
9.2201
 30
0
 11
12.5417
 21
9.2201
 31
0
  0
LINE
  8
LAYER1
  6
CONTINUOUS
 62
     7
 10
12.2917
 20
8.8034
 30
0
 11
12.5417
 21
8.8034
 31
0
  0
POLYLINE
  8
LAYER1
  6
CONTINUOUS
 62
     7
 66
     1
 70
     0
 40
0.001
 41
0.001
  0
VERTEX
  8
LAYER1
 10
12.3611
 20
9.1784
 30
0
 70
     0
  0
VERTEX
  8
LAYER1
 10
12.375
 20
9.1784
 30
0
 70
     0
  0
VERTEX
  8
LAYER1
 10
12.3889
 20
9.1645
 30
0
 70
     0
  0
VERTEX
  8
LAYER1
 10
12.3889
 20
9.1645
 30
0
 70
     0
  0
VERTEX
  8
LAYER1
 10
12.4028
 20
9.1506
 30
0
 70
     0
  0
VERTEX
  8
LAYER1
 10
12.4028
 20
9.1367
 30
0
 70
     0
  0
VERTEX
  8
LAYER1
 10
12.4028
 20
9.1367
 30
0
 70
     0
  0
SEQEND
  0
POLYLINE
  8
LAYER1
  6
CONTINUOUS
 62
     7
 66
     1
 70
     0
 40
0.001
 41
0.001
  0
VERTEX
  8
LAYER1
 10
12.4167
 20
9.1367
 30
0
 70
     0
  0
VERTEX
  8
LAYER1
 10
12.4167
 20
9.1367
 30
0
 70
     0
  0
VERTEX
  8
LAYER1
 10
12.4306
 20
9.1645
 30
0
 70
     0
  0
VERTEX
  8
LAYER1
 10
12.4306
 20
9.1645
 30
0
 70
     0
  0
VERTEX
  8
LAYER1
 10
12.4306
 20
9.1645
 30
0
 70
     0
  0
VERTEX
  8
LAYER1
 10
12.4583
 20
9.1784
 30
0
 70
     0
  0
VERTEX
  8
LAYER1
 10
12.4583
 20
9.1784
 30
0
 70
     0
  0
SEQEND
  0
POLYLINE
  8
LAYER1
  6
CONTINUOUS
 62
     7
 66
     1
 70
     0
 40
0.001
 41
0.001
  0
VERTEX
  8
LAYER1
 10
12.4583
 20
8.8451
 30
0
 70
     0
  0
VERTEX
  8
LAYER1
 10
12.4583
 20
8.8451
 30
0
 70
     0
  0
VERTEX
  8
LAYER1
 10
12.4444
 20
8.8451
 30
0
 70
     0
  0
VERTEX
  8
LAYER1
 10
12.4306
 20
8.8589
 30
0
 70
     0
  0
VERTEX
  8
LAYER1
 10
12.4306
 20
8.8589
 30
0
 70
     0
  0
VERTEX
  8
LAYER1
 10
12.4167
 20
8.8728
 30
0
 70
     0
  0
VERTEX
  8
LAYER1
 10
12.4167
 20
8.8867
 30
0
 70
     0
  0
SEQEND
  0
LINE
  8
LAYER1
  6
CONTINUOUS
 62
     7
 10
12.4167
 20
9.1367
 30
0
 11
12.4167
 21
8.8867
 31
0
  0
POLYLINE
  8
LAYER1
  6
CONTINUOUS
 62
     7
 66
     1
 70
     0
 40
0.001
 41
0.001
  0
VERTEX
  8
LAYER1
 10
12.4028
 20
8.8867
 30
0
 70
     0
  0
VERTEX
  8
LAYER1
 10
12.4028
 20
8.8728
 30
0
 70
     0
  0
VERTEX
  8
LAYER1
 10
12.4028
 20
8.8589
 30
0
 70
     0
  0
VERTEX
  8
LAYER1
 10
12.3889
 20
8.8589
 30
0
 70
     0
  0
VERTEX
  8
LAYER1
 10
12.375
 20
8.8451
 30
0
 70
     0
  0
VERTEX
  8
LAYER1
 10
12.375
 20
8.8451
 30
0
 70
     0
  0
VERTEX
  8
LAYER1
 10
12.3611
 20
8.8451
 30
0
 70
     0
  0
SEQEND
  0
LINE
  8
LAYER1
  6
CONTINUOUS
 62
     7
 10
12.4028
 20
9.1367
 30
0
 11
12.4028
 21
8.8867
 31
0
  0
POLYLINE
  8
LAYER1
  6
CONTINUOUS
 62
     7
 66
     1
 70
     0
 40
0.001
 41
0.001
  0
VERTEX
  8
LAYER1
 10
12.3194
 20
9.1784
 30
0
 70
     0
  0
VERTEX
  8
LAYER1
 10
12.3194
 20
9.1784
 30
0
 70
     0
  0
VERTEX
  8
LAYER1
 10
12.3056
 20
9.1923
 30
0
 70
     0
  0
VERTEX
  8
LAYER1
 10
12.2917
 20
9.1923
 30
0
 70
     0
  0
VERTEX
  8
LAYER1
 10
12.2917
 20
9.1923
 30
0
 70
     0
  0
VERTEX
  8
LAYER1
 10
12.2917
 20
9.2062
 30
0
 70
     0
  0
VERTEX
  8
LAYER1
 10
12.2917
 20
9.2201
 30
0
 70
     0
  0
SEQEND
  0
LINE
  8
LAYER1
  6
CONTINUOUS
 62
     7
 10
12.3611
 20
9.1784
 30
0
 11
12.3194
 21
9.1784
 31
0
  0
POLYLINE
  8
LAYER1
  6
CONTINUOUS
 62
     7
 66
     1
 70
     0
 40
0.001
 41
0.001
  0
VERTEX
  8
LAYER1
 10
12.5417
 20
9.2201
 30
0
 70
     0
  0
VERTEX
  8
LAYER1
 10
12.5417
 20
9.2062
 30
0
 70
     0
  0
VERTEX
  8
LAYER1
 10
12.5417
 20
9.2062
 30
0
 70
     0
  0
VERTEX
  8
LAYER1
 10
12.5278
 20
9.1923
 30
0
 70
     0
  0
VERTEX
  8
LAYER1
 10
12.5278
 20
9.1923
 30
0
 70
     0
  0
VERTEX
  8
LAYER1
 10
12.5139
 20
9.1784
 30
0
 70
     0
  0
VERTEX
  8
LAYER1
 10
12.5139
 20
9.1784
 30
0
 70
     0
  0
SEQEND
  0
LINE
  8
LAYER1
  6
CONTINUOUS
 62
     7
 10
12.4583
 20
9.1784
 30
0
 11
12.5139
 21
9.1784
 31
0
  0
POLYLINE
  8
LAYER1
  6
CONTINUOUS
 62
     7
 66
     1
 70
     0
 40
0.001
 41
0.001
  0
VERTEX
  8
LAYER1
 10
12.2917
 20
8.8034
 30
0
 70
     0
  0
VERTEX
  8
LAYER1
 10
12.2917
 20
8.8034
 30
0
 70
     0
  0
VERTEX
  8
LAYER1
 10
12.2917
 20
8.8173
 30
0
 70
     0
  0
VERTEX
  8
LAYER1
 10
12.2917
 20
8.8312
 30
0
 70
     0
  0
VERTEX
  8
LAYER1
 10
12.3056
 20
8.8312
 30
0
 70
     0
  0
VERTEX
  8
LAYER1
 10
12.3194
 20
8.8312
 30
0
 70
     0
  0
VERTEX
  8
LAYER1
 10
12.3194
 20
8.8312
 30
0
 70
     0
  0
SEQEND
  0
LINE
  8
LAYER1
  6
CONTINUOUS
 62
     7
 10
12.3611
 20
8.8451
 30
0
 11
12.3194
 21
8.8312
 31
0
  0
POLYLINE
  8
LAYER1
  6
CONTINUOUS
 62
     7
 66
     1
 70
     0
 40
0.001
 41
0.001
  0
VERTEX
  8
LAYER1
 10
12.5139
 20
8.8312
 30
0
 70
     0
  0
VERTEX
  8
LAYER1
 10
12.5278
 20
8.8312
 30
0
 70
     0
  0
VERTEX
  8
LAYER1
 10
12.5417
 20
8.8173
 30
0
 70
     0
  0
VERTEX
  8
LAYER1
 10
12.5417
 20
8.8034
 30
0
 70
     0
  0
VERTEX
  8
LAYER1
 10
12.5417
 20
8.8034
 30
0
 70
     0
  0
SEQEND
  0
ENDBLK
  8
LAYER1
  0
BLOCK
  8
LAYER1
  2
Group38
 70
     0
 10
0
 20
0
 30
0
  0
LINE
  8
LAYER1
  6
CONTINUOUS
 62
     7
 10
12.4583
 20
8.8451
 30
0
 11
12.5139
 21
8.8312
 31
0
  0
LINE
  8
LAYER1
  6
CONTINUOUS
 62
     7
 10
12.5278
 20
8.8034
 30
0
 11
12.5417
 21
8.8034
 31
0
  0
LINE
  8
LAYER1
  6
CONTINUOUS
 62
     7
 10
12.4028
 20
8.8034
 30
0
 11
12.4444
 21
8.8451
 31
0
  0
LINE
  8
LAYER1
  6
CONTINUOUS
 62
     7
 10
12.4028
 20
8.9423
 30
0
 11
12.4167
 21
8.9562
 31
0
  0
LINE
  8
LAYER1
  6
CONTINUOUS
 62
     7
 10
12.4028
 20
9.0673
 30
0
 11
12.4167
 21
9.0951
 31
0
  0
LINE
  8
LAYER1
  6
CONTINUOUS
 62
     7
 10
12.5139
 20
9.1923
 30
0
 11
12.5278
 21
9.2062
 31
0
  0
LINE
  8
LAYER1
  6
CONTINUOUS
 62
     7
 10
12.375
 20
9.1784
 30
0
 11
12.4167
 21
9.2201
 31
0
  0
LINE
  8
LAYER1
  6
CONTINUOUS
 62
     7
 10
12.4444
 20
8.8034
 30
0
 11
12.4722
 21
8.8451
 31
0
  0
LINE
  8
LAYER1
  6
CONTINUOUS
 62
     7
 10
12.3056
 20
8.8034
 30
0
 11
12.3472
 21
8.8451
 31
0
  0
LINE
  8
LAYER1
  6
CONTINUOUS
 62
     7
 10
12.4028
 20
8.9006
 30
0
 11
12.4167
 21
8.9145
 31
0
  0
LINE
  8
LAYER1
  6
CONTINUOUS
 62
     7
 10
12.4028
 20
9.0256
 30
0
 11
12.4167
 21
9.0395
 31
0
  0
LINE
  8
LAYER1
  6
CONTINUOUS
 62
     7
 10
12.4028
 20
9.1506
 30
0
 11
12.4583
 21
9.2201
 31
0
  0
ENDBLK
  8
LAYER1
  0
BLOCK
  8
LAYER1
  2
Group39
 70
     0
 10
0
 20
0
 30
0
  0
INSERT
  8
LAYER1
  2
Group37
 10
0
 20
0
 30
0
  0
INSERT
  8
LAYER1
  2
Group38
 10
0
 20
0
 30
0
  0
ENDBLK
  8
LAYER1
  0
BLOCK
  8
LAYER1
  2
Group40
 70
     0
 10
0
 20
0
 30
0
  0
LINE
  8
LAYER1
  6
CONTINUOUS
 62
     7
 10
12.3056
 20
9.1923
 30
0
 11
12.3333
 21
9.2201
 31
0
  0
LINE
  8
LAYER1
  6
CONTINUOUS
 62
     7
 10
12.3056
 20
6.2201
 30
0
 11
12.5278
 21
6.2201
 31
0
  0
LINE
  8
LAYER1
  6
CONTINUOUS
 62
     7
 10
12.3056
 20
5.8867
 30
0
 11
12.5278
 21
5.8867
 31
0
  0
POLYLINE
  8
LAYER1
  6
CONTINUOUS
 62
     7
 66
     1
 70
     0
 40
0.001
 41
0.001
  0
VERTEX
  8
LAYER1
 10
12.375
 20
6.1784
 30
0
 70
     0
  0
VERTEX
  8
LAYER1
 10
12.3889
 20
6.1784
 30
0
 70
     0
  0
VERTEX
  8
LAYER1
 10
12.4028
 20
6.1645
 30
0
 70
     0
  0
VERTEX
  8
LAYER1
 10
12.4028
 20
6.1506
 30
0
 70
     0
  0
VERTEX
  8
LAYER1
 10
12.4028
 20
6.1506
 30
0
 70
     0
  0
SEQEND
  0
POLYLINE
  8
LAYER1
  6
CONTINUOUS
 62
     7
 66
     1
 70
     0
 40
0.001
 41
0.001
  0
VERTEX
  8
LAYER1
 10
12.4167
 20
6.1506
 30
0
 70
     0
  0
VERTEX
  8
LAYER1
 10
12.4167
 20
6.1506
 30
0
 70
     0
  0
VERTEX
  8
LAYER1
 10
12.4306
 20
6.1784
 30
0
 70
     0
  0
VERTEX
  8
LAYER1
 10
12.4306
 20
6.1784
 30
0
 70
     0
  0
VERTEX
  8
LAYER1
 10
12.4444
 20
6.1784
 30
0
 70
     0
  0
VERTEX
  8
LAYER1
 10
12.4583
 20
6.1784
 30
0
 70
     0
  0
VERTEX
  8
LAYER1
 10
12.4583
 20
6.1784
 30
0
 70
     0
  0
SEQEND
  0
POLYLINE
  8
LAYER1
  6
CONTINUOUS
 62
     7
 66
     1
 70
     0
 40
0.001
 41
0.001
  0
VERTEX
  8
LAYER1
 10
12.4583
 20
5.9145
 30
0
 70
     0
  0
VERTEX
  8
LAYER1
 10
12.4583
 20
5.9145
 30
0
 70
     0
  0
VERTEX
  8
LAYER1
 10
12.4444
 20
5.9145
 30
0
 70
     0
  0
VERTEX
  8
LAYER1
 10
12.4306
 20
5.9284
 30
0
 70
     0
  0
VERTEX
  8
LAYER1
 10
12.4306
 20
5.9284
 30
0
 70
     0
  0
VERTEX
  8
LAYER1
 10
12.4167
 20
5.9423
 30
0
 70
     0
  0
VERTEX
  8
LAYER1
 10
12.4167
 20
5.9562
 30
0
 70
     0
  0
SEQEND
  0
LINE
  8
LAYER1
  6
CONTINUOUS
 62
     7
 10
12.4167
 20
6.1506
 30
0
 11
12.4167
 21
5.9562
 31
0
  0
POLYLINE
  8
LAYER1
  6
CONTINUOUS
 62
     7
 66
     1
 70
     0
 40
0.001
 41
0.001
  0
VERTEX
  8
LAYER1
 10
12.4028
 20
5.9562
 30
0
 70
     0
  0
VERTEX
  8
LAYER1
 10
12.4028
 20
5.9423
 30
0
 70
     0
  0
VERTEX
  8
LAYER1
 10
12.4028
 20
5.9423
 30
0
 70
     0
  0
VERTEX
  8
LAYER1
 10
12.3889
 20
5.9284
 30
0
 70
     0
  0
VERTEX
  8
LAYER1
 10
12.3889
 20
5.9145
 30
0
 70
     0
  0
VERTEX
  8
LAYER1
 10
12.3889
 20
5.9145
 30
0
 70
     0
  0
VERTEX
  8
LAYER1
 10
12.375
 20
5.9145
 30
0
 70
     0
  0
SEQEND
  0
LINE
  8
LAYER1
  6
CONTINUOUS
 62
     7
 10
12.4028
 20
6.1506
 30
0
 11
12.4028
 21
5.9562
 31
0
  0
POLYLINE
  8
LAYER1
  6
CONTINUOUS
 62
     7
 66
     1
 70
     0
 40
0.001
 41
0.001
  0
VERTEX
  8
LAYER1
 10
12.5278
 20
6.2062
 30
0
 70
     0
  0
VERTEX
  8
LAYER1
 10
12.5139
 20
6.1923
 30
0
 70
     0
  0
VERTEX
  8
LAYER1
 10
12.5
 20
6.1923
 30
0
 70
     0
  0
SEQEND
  0
LINE
  8
LAYER1
  6
CONTINUOUS
 62
     7
 10
12.4583
 20
6.1784
 30
0
 11
12.5
 21
6.1923
 31
0
  0
LINE
  8
LAYER1
  6
CONTINUOUS
 62
     7
 10
12.5278
 20
6.2062
 30
0
 11
12.5278
 21
6.2201
 31
0
  0
POLYLINE
  8
LAYER1
  6
CONTINUOUS
 62
     7
 66
     1
 70
     0
 40
0.001
 41
0.001
  0
VERTEX
  8
LAYER1
 10
12.3194
 20
6.1923
 30
0
 70
     0
  0
VERTEX
  8
LAYER1
 10
12.3056
 20
6.1923
 30
0
 70
     0
  0
VERTEX
  8
LAYER1
 10
12.3056
 20
6.2062
 30
0
 70
     0
  0
SEQEND
  0
LINE
  8
LAYER1
  6
CONTINUOUS
 62
     7
 10
12.3056
 20
6.2201
 30
0
 11
12.3056
 21
6.2062
 31
0
  0
LINE
  8
LAYER1
  6
CONTINUOUS
 62
     7
 10
12.375
 20
6.1784
 30
0
 11
12.3194
 21
6.1923
 31
0
  0
POLYLINE
  8
LAYER1
  6
CONTINUOUS
 62
     7
 66
     1
 70
     0
 40
0.001
 41
0.001
  0
VERTEX
  8
LAYER1
 10
12.3056
 20
5.8867
 30
0
 70
     0
  0
VERTEX
  8
LAYER1
 10
12.3056
 20
5.8867
 30
0
 70
     0
  0
VERTEX
  8
LAYER1
 10
12.3056
 20
5.9006
 30
0
 70
     0
  0
VERTEX
  8
LAYER1
 10
12.3056
 20
5.9145
 30
0
 70
     0
  0
VERTEX
  8
LAYER1
 10
12.3194
 20
5.9145
 30
0
 70
     0
  0
SEQEND
  0
LINE
  8
LAYER1
  6
CONTINUOUS
 62
     7
 10
12.375
 20
5.9145
 30
0
 11
12.3194
 21
5.9145
 31
0
  0
POLYLINE
  8
LAYER1
  6
CONTINUOUS
 62
     7
 66
     1
 70
     0
 40
0.001
 41
0.001
  0
VERTEX
  8
LAYER1
 10
12.5
 20
5.9145
 30
0
 70
     0
  0
VERTEX
  8
LAYER1
 10
12.5139
 20
5.9145
 30
0
 70
     0
  0
VERTEX
  8
LAYER1
 10
12.5278
 20
5.9006
 30
0
 70
     0
  0
VERTEX
  8
LAYER1
 10
12.5278
 20
5.8867
 30
0
 70
     0
  0
VERTEX
  8
LAYER1
 10
12.5278
 20
5.8867
 30
0
 70
     0
  0
SEQEND
  0
ENDBLK
  8
LAYER1
  0
BLOCK
  8
LAYER1
  2
Group41
 70
     0
 10
0
 20
0
 30
0
  0
LINE
  8
LAYER1
  6
CONTINUOUS
 62
     7
 10
12.4583
 20
5.9145
 30
0
 11
12.5
 21
5.9145
 31
0
  0
LINE
  8
LAYER1
  6
CONTINUOUS
 62
     7
 10
12.4722
 20
5.8867
 30
0
 11
12.5
 21
5.9145
 31
0
  0
LINE
  8
LAYER1
  6
CONTINUOUS
 62
     7
 10
12.3472
 20
5.8867
 30
0
 11
12.375
 21
5.9145
 31
0
  0
LINE
  8
LAYER1
  6
CONTINUOUS
 62
     7
 10
12.4028
 20
5.9423
 30
0
 11
12.4167
 21
5.9562
 31
0
  0
LINE
  8
LAYER1
  6
CONTINUOUS
 62
     7
 10
12.4028
 20
6.0812
 30
0
 11
12.4167
 21
6.0951
 31
0
  0
LINE
  8
LAYER1
  6
CONTINUOUS
 62
     7
 10
12.375
 20
6.1784
 30
0
 11
12.4028
 21
6.2201
 31
0
  0
LINE
  8
LAYER1
  6
CONTINUOUS
 62
     7
 10
12.5139
 20
5.8867
 30
0
 11
12.5278
 21
5.8867
 31
0
  0
LINE
  8
LAYER1
  6
CONTINUOUS
 62
     7
 10
12.3889
 20
5.8867
 30
0
 11
12.4306
 21
5.9284
 31
0
  0
LINE
  8
LAYER1
  6
CONTINUOUS
 62
     7
 10
12.4028
 20
6.0395
 30
0
 11
12.4167
 21
6.0534
 31
0
  0
LINE
  8
LAYER1
  6
CONTINUOUS
 62
     7
 10
12.4028
 20
6.1645
 30
0
 11
12.4583
 21
6.2201
 31
0
  0
ENDBLK
  8
LAYER1
  0
BLOCK
  8
LAYER1
  2
Group42
 70
     0
 10
0
 20
0
 30
0
  0
INSERT
  8
LAYER1
  2
Group40
 10
0
 20
0
 30
0
  0
INSERT
  8
LAYER1
  2
Group41
 10
0
 20
0
 30
0
  0
ENDBLK
  8
LAYER1
  0
BLOCK
  8
LAYER1
  2
Group43
 70
     0
 10
0
 20
0
 30
0
  0
LINE
  8
LAYER1
  6
CONTINUOUS
 62
     7
 10
12.3056
 20
6.2062
 30
0
 11
12.3194
 21
6.2201
 31
0
  0
LINE
  8
LAYER1
  6
CONTINUOUS
 62
     7
 10
12.3194
 20
3.5117
 30
0
 11
12.5139
 21
3.5117
 31
0
  0
LINE
  8
LAYER1
  6
CONTINUOUS
 62
     7
 10
12.3194
 20
3.2617
 30
0
 11
12.5139
 21
3.2617
 31
0
  0
POLYLINE
  8
LAYER1
  6
CONTINUOUS
 62
     7
 66
     1
 70
     0
 40
0.001
 41
0.001
  0
VERTEX
  8
LAYER1
 10
12.375
 20
3.4839
 30
0
 70
     0
  0
VERTEX
  8
LAYER1
 10
12.3889
 20
3.4839
 30
0
 70
     0
  0
VERTEX
  8
LAYER1
 10
12.3889
 20
3.4701
 30
0
 70
     0
  0
VERTEX
  8
LAYER1
 10
12.3889
 20
3.4701
 30
0
 70
     0
  0
VERTEX
  8
LAYER1
 10
12.4028
 20
3.4701
 30
0
 70
     0
  0
VERTEX
  8
LAYER1
 10
12.4028
 20
3.4562
 30
0
 70
     0
  0
VERTEX
  8
LAYER1
 10
12.4028
 20
3.4562
 30
0
 70
     0
  0
SEQEND
  0
POLYLINE
  8
LAYER1
  6
CONTINUOUS
 62
     7
 66
     1
 70
     0
 40
0.001
 41
0.001
  0
VERTEX
  8
LAYER1
 10
12.4167
 20
3.4562
 30
0
 70
     0
  0
VERTEX
  8
LAYER1
 10
12.4167
 20
3.4562
 30
0
 70
     0
  0
VERTEX
  8
LAYER1
 10
12.4306
 20
3.4701
 30
0
 70
     0
  0
VERTEX
  8
LAYER1
 10
12.4306
 20
3.4701
 30
0
 70
     0
  0
VERTEX
  8
LAYER1
 10
12.4306
 20
3.4701
 30
0
 70
     0
  0
VERTEX
  8
LAYER1
 10
12.4583
 20
3.4839
 30
0
 70
     0
  0
VERTEX
  8
LAYER1
 10
12.4583
 20
3.4839
 30
0
 70
     0
  0
SEQEND
  0
POLYLINE
  8
LAYER1
  6
CONTINUOUS
 62
     7
 66
     1
 70
     0
 40
0.001
 41
0.001
  0
VERTEX
  8
LAYER1
 10
12.4583
 20
3.3034
 30
0
 70
     0
  0
VERTEX
  8
LAYER1
 10
12.4583
 20
3.3034
 30
0
 70
     0
  0
VERTEX
  8
LAYER1
 10
12.4444
 20
3.3034
 30
0
 70
     0
  0
VERTEX
  8
LAYER1
 10
12.4306
 20
3.3173
 30
0
 70
     0
  0
VERTEX
  8
LAYER1
 10
12.4306
 20
3.3173
 30
0
 70
     0
  0
VERTEX
  8
LAYER1
 10
12.4167
 20
3.3173
 30
0
 70
     0
  0
VERTEX
  8
LAYER1
 10
12.4167
 20
3.3312
 30
0
 70
     0
  0
SEQEND
  0
LINE
  8
LAYER1
  6
CONTINUOUS
 62
     7
 10
12.4167
 20
3.4562
 30
0
 11
12.4167
 21
3.3312
 31
0
  0
POLYLINE
  8
LAYER1
  6
CONTINUOUS
 62
     7
 66
     1
 70
     0
 40
0.001
 41
0.001
  0
VERTEX
  8
LAYER1
 10
12.4028
 20
3.3312
 30
0
 70
     0
  0
VERTEX
  8
LAYER1
 10
12.4028
 20
3.3173
 30
0
 70
     0
  0
VERTEX
  8
LAYER1
 10
12.4028
 20
3.3173
 30
0
 70
     0
  0
VERTEX
  8
LAYER1
 10
12.3889
 20
3.3173
 30
0
 70
     0
  0
VERTEX
  8
LAYER1
 10
12.3889
 20
3.3034
 30
0
 70
     0
  0
VERTEX
  8
LAYER1
 10
12.3889
 20
3.3034
 30
0
 70
     0
  0
VERTEX
  8
LAYER1
 10
12.375
 20
3.3034
 30
0
 70
     0
  0
SEQEND
  0
LINE
  8
LAYER1
  6
CONTINUOUS
 62
     7
 10
12.4028
 20
3.4562
 30
0
 11
12.4028
 21
3.3312
 31
0
  0
POLYLINE
  8
LAYER1
  6
CONTINUOUS
 62
     7
 66
     1
 70
     0
 40
0.001
 41
0.001
  0
VERTEX
  8
LAYER1
 10
12.3448
 20
3.4701
 30
0
 70
     0
  0
VERTEX
  8
LAYER1
 10
12.3267
 20
3.4791
 30
0
 70
     0
  0
VERTEX
  8
LAYER1
 10
12.3194
 20
3.4978
 30
0
 70
     0
  0
SEQEND
  0
LINE
  8
LAYER1
  6
CONTINUOUS
 62
     7
 10
12.375
 20
3.4839
 30
0
 11
12.3333
 21
3.4839
 31
0
  0
POLYLINE
  8
LAYER1
  6
CONTINUOUS
 62
     7
 66
     1
 70
     0
 40
0.001
 41
0.001
  0
VERTEX
  8
LAYER1
 10
12.5139
 20
3.5117
 30
0
 70
     0
  0
VERTEX
  8
LAYER1
 10
12.5139
 20
3.4978
 30
0
 70
     0
  0
VERTEX
  8
LAYER1
 10
12.5139
 20
3.4978
 30
0
 70
     0
  0
VERTEX
  8
LAYER1
 10
12.5
 20
3.4978
 30
0
 70
     0
  0
VERTEX
  8
LAYER1
 10
12.5
 20
3.4839
 30
0
 70
     0
  0
VERTEX
  8
LAYER1
 10
12.5
 20
3.4839
 30
0
 70
     0
  0
VERTEX
  8
LAYER1
 10
12.4861
 20
3.4839
 30
0
 70
     0
  0
SEQEND
  0
LINE
  8
LAYER1
  6
CONTINUOUS
 62
     7
 10
12.4583
 20
3.4839
 30
0
 11
12.4861
 21
3.4839
 31
0
  0
POLYLINE
  8
LAYER1
  6
CONTINUOUS
 62
     7
 66
     1
 70
     0
 40
0.001
 41
0.001
  0
VERTEX
  8
LAYER1
 10
12.4861
 20
3.3034
 30
0
 70
     0
  0
VERTEX
  8
LAYER1
 10
12.5
 20
3.3034
 30
0
 70
     0
  0
VERTEX
  8
LAYER1
 10
12.5
 20
3.2895
 30
0
 70
     0
  0
VERTEX
  8
LAYER1
 10
12.5
 20
3.2895
 30
0
 70
     0
  0
VERTEX
  8
LAYER1
 10
12.5139
 20
3.2895
 30
0
 70
     0
  0
VERTEX
  8
LAYER1
 10
12.5139
 20
3.2756
 30
0
 70
     0
  0
VERTEX
  8
LAYER1
 10
12.5139
 20
3.2756
 30
0
 70
     0
  0
SEQEND
  0
LINE
  8
LAYER1
  6
CONTINUOUS
 62
     7
 10
12.5139
 20
3.2617
 30
0
 11
12.5139
 21
3.2756
 31
0
  0
LINE
  8
LAYER1
  6
CONTINUOUS
 62
     7
 10
12.4583
 20
3.3034
 30
0
 11
12.4861
 21
3.3034
 31
0
  0
POLYLINE
  8
LAYER1
  6
CONTINUOUS
 62
     7
 66
     1
 70
     0
 40
0.001
 41
0.001
  0
VERTEX
  8
LAYER1
 10
12.3194
 20
3.2756
 30
0
 70
     0
  0
VERTEX
  8
LAYER1
 10
12.3194
 20
3.2895
 30
0
 70
     0
  0
VERTEX
  8
LAYER1
 10
12.3194
 20
3.2895
 30
0
 70
     0
  0
VERTEX
  8
LAYER1
 10
12.3333
 20
3.3034
 30
0
 70
     0
  0
VERTEX
  8
LAYER1
 10
12.3333
 20
3.3034
 30
0
 70
     0
  0
SEQEND
  0
LINE
  8
LAYER1
  6
CONTINUOUS
 62
     7
 10
12.375
 20
3.3034
 30
0
 11
12.3333
 21
3.3034
 31
0
  0
ENDBLK
  8
LAYER1
  0
BLOCK
  8
LAYER1
  2
Group44
 70
     0
 10
0
 20
0
 30
0
  0
LINE
  8
LAYER1
  6
CONTINUOUS
 62
     7
 10
12.3194
 20
3.2756
 30
0
 11
12.3194
 21
3.2617
 31
0
  0
LINE
  8
LAYER1
  6
CONTINUOUS
 62
     7
 10
12.4861
 20
3.2617
 30
0
 11
12.5
 21
3.2895
 31
0
  0
LINE
  8
LAYER1
  6
CONTINUOUS
 62
     7
 10
12.3472
 20
3.2617
 30
0
 11
12.3889
 21
3.3034
 31
0
  0
LINE
  8
LAYER1
  6
CONTINUOUS
 62
     7
 10
12.4028
 20
3.3173
 30
0
 11
12.4167
 21
3.3451
 31
0
  0
LINE
  8
LAYER1
  6
CONTINUOUS
 62
     7
 10
12.4028
 20
3.4562
 30
0
 11
12.4583
 21
3.5117
 31
0
  0
LINE
  8
LAYER1
  6
CONTINUOUS
 62
     7
 10
12.3194
 20
3.4978
 30
0
 11
12.3333
 21
3.5117
 31
0
  0
LINE
  8
LAYER1
  6
CONTINUOUS
 62
     7
 10
12.3889
 20
3.2617
 30
0
 11
12.4306
 21
3.3034
 31
0
  0
LINE
  8
LAYER1
  6
CONTINUOUS
 62
     7
 10
12.4028
 20
3.4145
 30
0
 11
12.4167
 21
3.4284
 31
0
  0
LINE
  8
LAYER1
  6
CONTINUOUS
 62
     7
 10
12.4722
 20
3.4839
 30
0
 11
12.5139
 21
3.5117
 31
0
  0
ENDBLK
  8
LAYER1
  0
BLOCK
  8
LAYER1
  2
Group45
 70
     0
 10
0
 20
0
 30
0
  0
INSERT
  8
LAYER1
  2
Group43
 10
0
 20
0
 30
0
  0
INSERT
  8
LAYER1
  2
Group44
 10
0
 20
0
 30
0
  0
ENDBLK
  8
LAYER1
  0
BLOCK
  8
LAYER1
  2
Group46
 70
     0
 10
0
 20
0
 30
0
  0
TEXT
  8
LAYER1
 62
     7
 10
2.4938
 20
0.0319
 30
0
 40
0.1389
  1
- 4-196 -
 50
0
999
Geneva
  0
TEXT
  8
LAYER1
 62
     7
 10
10.7299
 20
0.0319
 30
0
 40
0.1389
  1
- 4-197 -
 50
0
999
Geneva
  0
LINE
  8
LAYER1
  6
CONTINUOUS
 62
     7
 10
0.2083
 20
10.8173
 30
0
 11
4.7083
 21
10.8173
 31
0
  0
TEXT
  8
LAYER1
 62
     7
 10
0.216
 20
10.5735
 30
0
 40
0.125
  1
Structural Steel - ANS S Shapes
 50
0
999
Geneva
  0
TEXT
  8
LAYER1
 62
     7
 10
0.966
 20
7.3513
 30
0
 40
0.0833
  1
S 24x106
 50
0
999
Geneva
  0
TEXT
  8
LAYER1
 62
     7
 10
0.5077
 20
7.1569
 30
0
 40
0.0833
  1
S Shape Structural Steel
 50
0
999
Geneva
  0
INSERT
  8
LAYER1
  2
Group3
 10
0
 20
0
 30
0
  0
INSERT
  8
LAYER1
  2
Group6
 10
0
 20
0
 30
0
  0
TEXT
  8
LAYER1
 62
     7
 10
1.0077
 20
4.4346
 30
0
 40
0.0833
  1
S 24x90
 50
0
999
Geneva
  0
TEXT
  8
LAYER1
 62
     7
 10
0.5077
 20
4.2402
 30
0
 40
0.0833
  1
S Shape Structural Steel
 50
0
999
Geneva
  0
INSERT
  8
LAYER1
  2
Group9
 10
0
 20
0
 30
0
  0
TEXT
  8
LAYER1
 62
     7
 10
1.0077
 20
1.893
 30
0
 40
0.0833
  1
S 20x86
 50
0
999
Geneva
  0
TEXT
  8
LAYER1
 62
     7
 10
0.5077
 20
1.6985
 30
0
 40
0.0833
  1
S Shape Structural Steel
 50
0
999
Geneva
  0
INSERT
  8
LAYER1
  2
Group12
 10
0
 20
0
 30
0
  0
TEXT
  8
LAYER1
 62
     7
 10
2.9243
 20
7.3513
 30
0
 40
0.0833
  1
S 20x66
 50
0
999
Geneva
  0
TEXT
  8
LAYER1
 62
     7
 10
2.4243
 20
7.1569
 30
0
 40
0.0833
  1
S Shape Structural Steel
 50
0
999
Geneva
  0
INSERT
  8
LAYER1
  2
Group15
 10
0
 20
0
 30
0
  0
TEXT
  8
LAYER1
 62
     7
 10
2.8688
 20
4.4624
 30
0
 40
0.0833
  1
S 18x54.7
 50
0
999
Geneva
  0
TEXT
  8
LAYER1
 62
     7
 10
2.4243
 20
4.268
 30
0
 40
0.0833
  1
S Shape Structural Steel
 50
0
999
Geneva
  0
INSERT
  8
LAYER1
  2
Group18
 10
0
 20
0
 30
0
  0
TEXT
  8
LAYER1
 62
     7
 10
2.8688
 20
1.893
 30
0
 40
0.0833
  1
S 15x42.9
 50
0
999
Geneva
  0
TEXT
  8
LAYER1
 62
     7
 10
2.4243
 20
1.6985
 30
0
 40
0.0833
  1
S Shape Structural Steel
 50
0
999
Geneva
  0
INSERT
  8
LAYER1
  2
Group21
 10
0
 20
0
 30
0
  0
TEXT
  8
LAYER1
 62
     7
 10
4.716
 20
7.3513
 30
0
 40
0.0833
  1
S 12x40.8
 50
0
999
Geneva
  0
TEXT
  8
LAYER1
 62
     7
 10
4.2854
 20
7.1569
 30
0
 40
0.0833
  1
S Shape Structural Steel
 50
0
999
Geneva
  0
INSERT
  8
LAYER1
  2
Group24
 10
0
 20
0
 30
0
  0
TEXT
  8
LAYER1
 62
     7
 10
4.716
 20
4.4624
 30
0
 40
0.0833
  1
S 12x31.8
 50
0
999
Geneva
  0
TEXT
  8
LAYER1
 62
     7
 10
4.2854
 20
4.268
 30
0
 40
0.0833
  1
S Shape Structural Steel
 50
0
999
Geneva
  0
INSERT
  8
LAYER1
  2
Group27
 10
0
 20
0
 30
0
  0
TEXT
  8
LAYER1
 62
     7
 10
4.716
 20
1.893
 30
0
 40
0.0833
  1
S 10x25.4
 50
0
999
Geneva
  0
TEXT
  8
LAYER1
 62
     7
 10
4.2854
 20
1.6985
 30
0
 40
0.0833
  1
S Shape Structural Steel
 50
0
999
Geneva
  0
INSERT
  8
LAYER1
  2
Group30
 10
0
 20
0
 30
0
  0
TEXT
  8
LAYER1
 62
     7
 10
10.3132
 20
7.6985
 30
0
 40
0.0833
  1
S 8x18.4
 50
0
999
Geneva
  0
TEXT
  8
LAYER1
 62
     7
 10
9.8271
 20
7.5041
 30
0
 40
0.0833
  1
S Shape Structural Steel
 50
0
999
Geneva
  0
INSERT
  8
LAYER1
  2
Group33
 10
0
 20
0
 30
0
  0
TEXT
  8
LAYER1
 62
     7
 10
10.3132
 20
4.8235
 30
0
 40
0.0833
  1
S 7x15.3
 50
0
999
Geneva
  0
TEXT
  8
LAYER1
 62
     7
 10
9.8271
 20
4.6291
 30
0
 40
0.0833
  1
S Shape Structural Steel
 50
0
999
Geneva
  0
INSERT
  8
LAYER1
  2
Group36
 10
0
 20
0
 30
0
  0
TEXT
  8
LAYER1
 62
     7
 10
10.3132
 20
2.268
 30
0
 40
0.0833
  1
S 6x12.5
 50
0
999
Geneva
  0
TEXT
  8
LAYER1
 62
     7
 10
9.8271
 20
2.0735
 30
0
 40
0.0833
  1
S Shape Structural Steel
 50
0
999
Geneva
  0
INSERT
  8
LAYER1
  2
Group39
 10
0
 20
0
 30
0
  0
TEXT
  8
LAYER1
 62
     7
 10
12.0771
 20
7.6985
 30
0
 40
0.0833
  1
S 5x14.75
 50
0
999
Geneva
  0
TEXT
  8
LAYER1
 62
     7
 10
11.6466
 20
7.5041
 30
0
 40
0.0833
  1
S Shape Structural Steel
 50
0
999
Geneva
  0
INSERT
  8
LAYER1
  2
Group42
 10
0
 20
0
 30
0
  0
TEXT
  8
LAYER1
 62
     7
 10
12.1604
 20
4.8513
 30
0
 40
0.0833
  1
S 4x7.7
 50
0
999
Geneva
  0
TEXT
  8
LAYER1
 62
     7
 10
11.6466
 20
4.6569
 30
0
 40
0.0833
  1
S Shape Structural Steel
 50
0
999
Geneva
  0
INSERT
  8
LAYER1
  2
Group45
 10
0
 20
0
 30
0
  0
TEXT
  8
LAYER1
 62
     7
 10
12.1604
 20
2.268
 30
0
 40
0.0833
  1
S 3x7.5
 50
0
999
Geneva
  0
TEXT
  8
LAYER1
 62
     7
 10
11.6466
 20
2.0735
 30
0
 40
0.0833
  1
S Shape Structural Steel
 50
0
999
Geneva
  0
LINE
  8
LAYER1
  6
CONTINUOUS
 62
     7
 10
12.3472
 20
3.4839
 30
0
 11
12.375
 21
3.5117
 31
0
  0
LINE
  8
LAYER1
  6
CONTINUOUS
 62
     7
 10
8.625
 20
10.8173
 30
0
 11
13.125
 21
10.8173
 31
0
  0
TEXT
  8
LAYER1
 62
     7
 10
8.6327
 20
10.5735
 30
0
 40
0.125
  1
Structural Steel - ANS S Shapes
 50
0
999
Geneva
  0
TEXT
  8
LAYER1
 62
     7
 10
4.9382
 20
0.2541
 30
0
 40
0.0833
  1
©1992
 50
0
999
Geneva
  0
TEXT
  8
LAYER1
 62
     7
 10
4.2299
 20
0.0874
 30
0
 40
0.0833
  1
Advanced System Design, Inc.
 50
0
999
Geneva
  0
TEXT
  8
LAYER1
 62
     7
 10
0.2299
 20
0.1152
 30
0
 40
0.0833
  1
Scale 1in = 1ft  Printed at 70%
 50
0
999
Geneva
  0
TEXT
  8
LAYER1
 62
     7
 10
13.2993
 20
0.2541
 30
0
 40
0.0833
  1
©1992
 50
0
999
Geneva
  0
TEXT
  8
LAYER1
 62
     7
 10
12.591
 20
0.0874
 30
0
 40
0.0833
  1
Advanced System Design, Inc.
 50
0
999
Geneva
  0
TEXT
  8
LAYER1
 62
     7
 10
8.6327
 20
0.1152
 30
0
 40
0.0833
  1
Scale 1in = 1ft  Printed at 70%
 50
0
999
Geneva
  0
TEXT
  8
LAYER1
 62
     7
 10
1.091
 20
6.9902
 30
0
 40
0.0833
  1
44200
 50
0
999
Geneva
  0
TEXT
  8
LAYER1
 62
     7
 10
2.9799
 20
6.9902
 30
0
 40
0.0833
  1
44201
 50
0
999
Geneva
  0
TEXT
  8
LAYER1
 62
     7
 10
4.8688
 20
6.9763
 30
0
 40
0.0833
  1
44202
 50
0
999
Geneva
  0
TEXT
  8
LAYER1
 62
     7
 10
1.0493
 20
4.0596
 30
0
 40
0.0833
  1
44203
 50
0
999
Geneva
  0
TEXT
  8
LAYER1
 62
     7
 10
2.9938
 20
4.1152
 30
0
 40
0.0833
  1
44204
 50
0
999
Geneva
  0
TEXT
  8
LAYER1
 62
     7
 10
4.841
 20
4.0735
 30
0
 40
0.0833
  1
44205
 50
0
999
Geneva
  0
TEXT
  8
LAYER1
 62
     7
 10
1.091
 20
1.518
 30
0
 40
0.0833
  1
44206
 50
0
999
Geneva
  0
TEXT
  8
LAYER1
 62
     7
 10
3.0077
 20
1.518
 30
0
 40
0.0833
  1
44207
 50
0
999
Geneva
  0
TEXT
  8
LAYER1
 62
     7
 10
4.841
 20
1.5458
 30
0
 40
0.0833
  1
44208
 50
0
999
Geneva
  0
TEXT
  8
LAYER1
 62
     7
 10
10.3688
 20
7.268
 30
0
 40
0.0833
  1
44209
 50
0
999
Geneva
  0
TEXT
  8
LAYER1
 62
     7
 10
12.3132
 20
7.3096
 30
0
 40
0.0833
  1
44210
 50
0
999
Geneva
  0
TEXT
  8
LAYER1
 62
     7
 10
10.4243
 20
4.4069
 30
0
 40
0.0833
  1
44211
 50
0
999
Geneva
  0
TEXT
  8
LAYER1
 62
     7
 10
12.2021
 20
4.4624
 30
0
 40
0.0833
  1
44212
 50
0
999
Geneva
  0
TEXT
  8
LAYER1
 62
     7
 10
10.3966
 20
1.893
 30
0
 40
0.0833
  1
44213
 50
0
999
Geneva
  0
TEXT
  8
LAYER1
 62
     7
 10
12.1882
 20
1.8374
 30
0
 40
0.0833
  1
44214
 50
0
999
Geneva
  0
ENDBLK
  8
LAYER1
  0
ENDSEC
  0
SECTION
  2
ENTITIES
  0
INSERT
  8
LAYER1
  2
Group46
 10
0
 20
0
 30
0
  0
ENDSEC
  0
EOF
